Blues Riff (Riff principal) Tab de uke por Bb King

Ukulele Tab sem cifras.

Avalie a canção!
ImprimirAdicionar tab ao seu Livro de Música

Tablature / Chords (Riff principal)

Font size: A- A A+

Artista: 
Álbum:  desconhecido
Tom: desconhecidoTablatura (sem cifras)
A|------5-6-710-12-10-7-6-5------------------------------|
E|--5-8----------------------8-7~~~~~~
C|-------------------------------------------------------|
G|-------------------------------------------------------|
A|--------0-1-2--5-8-5--2-1-0----------|
E|----0-3---------------------3p0------|
C|-------------------------------------|
G|-------------------------------------|

Tab de uke por , 11 Jun 2012

Comentários da tab (0)

Nenhum comentário ainda :(
Precisa de ajuda, tem uma dica para compartilhar ou simplesmente quer falar sobre essa música? Inicie a discussão!

Tem algo para dizer?
Compartilhe seus Padrões de batida, acordes ou dicas para tocar esta aba!

Top Tablaturas e Cifras por Bb King, não perca estas músicas!

Sobre esta música: Blues Riff

Nenhuma informação sobre esta música.

Você cobriu Blues Riff em seu Ukulele? Compartilhe seu trabalho!
Enviar um cover