No Surprises Tab de uke por Amanda Palmer

5 Acordes usados na música: G, Cm6, Em, C, D7

8.9/10
ImprimirAdicionar tab ao seu Livro de Música

Tablature / Chords (Música Inteira)

Font size: A- A A+

Artista: 
Ano:  2010
Dificuldade: 
4.3
(Intermediario)
Tom: G, EmCifras e Tablatura
# Amanda Palmer's ukulele interpretation of Radiohead's "No Surprises", 
# as can be heard and bought here:
# http://music.amandapalmer.net/album/amanda-palmer-performs-the-popular-hits-of-radiohead-on-her-magical-ukulele

Intro:
G G G G G G Cm6 Cm6
# ||-2-------2-------|-2-------------0-|
||-----3-------3---|-----3-------3---|
||---2---2---2---2-|---2---2-0-3-----|
||-----------------|-----------------| x2

Verse:
G G G G G G G G
# |-2-------2-------|-2-------2-------|
|-----3-------3---|-----3-------3---|
|---2---2---2---2-|---2---2---2---2-|
|-----------------|-----------------|

Em Em Em Em Em Em Em Em
# |-2-------2-------|-2-------2-------|
|-----3-------3---|-----3-------3---|
|---4---4---4---4-|---4---4---4---4-|
|-----------------|-----------------|

C C C C D7 D7 D7 D7
# |-3-------3-------|-3---0---3---0---|
|-----3-------3---|-----------------|
|---4---4---4---4-|---2---2---2---2-|
|-----------------|-----------------|

G G G G G G Cm6 Cm6
# |-2-------2-------|-2-------------0-|
|-----3-------3---|-----3-------3---|
|---2---2---2---2-|---2---2-0-3-----|
|-----------------|-----------------|

# After the first two verses the piano takes over, but you can use the above
# tabs to play the rest of the song: the "No alarms and no surprises"
# part repeats the C C-D7 D7 bars, but apart from that it's just like the verse.

Tab de uke por , 07 Ago 2010

Comentários da tab (0)

Nenhum comentário ainda :(
Precisa de ajuda, tem uma dica para compartilhar ou simplesmente quer falar sobre essa música? Inicie a discussão!

Tem algo para dizer?
Compartilhe seus Padrões de batida, acordes ou dicas para tocar esta aba!

Top Tablaturas e Cifras por Amanda Palmer, não perca estas músicas!

Sobre esta música: No Surprises

Nenhuma informação sobre esta música.

Você cobriu No Surprises em seu Ukulele? Compartilhe seu trabalho!
Enviar um cover