Never Alone Tab de uke por Alex Teza

Ukulele Tab sem cifras.

Avalie a canção!
ImprimirAdicionar tab ao seu Livro de Música

Tablature / Chords (Música Inteira)

Font size: A- A A+

Artista: 
Álbum:  desconhecido
Tom: desconhecidoTablatura (sem cifras)
A|-3------------5-------------------|
E|-------1---------------2-----------2-------|
C|----------------5------------------------|
G|-----------3--------------7---------------|



A|----------------------2-------7-----------|
E|------1-----------------------------2-----|
C|---------------3-------------------------|
G|----------------------------5------------|



A|----------------------------------------|
E|----------------------------------------|
C|----------------------------------------|
G|----------------------------------------|



A|----------------------------------------|
E|----------------------------------------|
C|----------------------------------------|
G|----------------------------------------|

Tab de uke por , 07 Abr 2016

Comentários da tab (1)

Tem algo para dizer?
Compartilhe seus Padrões de batida, acordes ou dicas para tocar esta aba!
Filtrar por:
cameliabrower860 avatar
The way you look at me makes me want to lose myself in the moment. Let's rewrite the script for tonight, with a touch more passion. f1nd me on cameliabrower_mooo_com change _ to dot
18 Jul 2024
Comentário

Top Tablaturas e Cifras por Alex Teza, não perca estas músicas!

Sobre esta música: Never Alone

Nenhuma informação sobre esta música.

Você cobriu Never Alone em seu Ukulele? Compartilhe seu trabalho!
Enviar um cover