Uninvited Tab de uke por Alanis Morissette

8 Acordes usados na música: D, A, E, C, G, Gm, D7, D7M

10/10
ImprimirAdicionar tab ao seu Livro de Música

Tablature / Chords (Música Inteira)

Font size: A- A A+

Álbum: 
Ano:  2005
Dificuldade: 
4.21
(Intermediario)
Tom: desconhecidoCifras e Tablatura
# Song is finger peaked. Patterns bellow:

D D
A|------------0--------1--------0---------| A-----------0----------1---------0-------|
E|----2-----------------------------------| E----2-----------------------------------|
C|----2-----------------------------------| C---------------------------------------|
G|----------------------------------------| G ----------------------------------------|


Gm Gm
A|-----------0----------2---------0-------|
E|----3-----------------------------------|
C|----2-----------------------------------|
G|----------------------------------------|


D7 D7
A|-----------0----------1---------0-------|
E|----2-----------------------------------|
C|----0-----------------------------------|
G|----------------------------------------|

G G
A|-----------0----------2---------0-------|
E|----3-----------------------------------|
C|----2-----------------------------------|
G|----------------------------------------|


D D
Like anyone would be
Gm Gm D D
I am flattered by your fascination with me
D D
Like any hot blooded woman
Gm Gm D D
I have simply wanted an object to crave
D7 D7 G G
But you you're not allowed
D D
You're uninvited
D7M D7M D D
An unfortunate slight

D D
Must be strangely exciting
Gm Gm D D
To watch the stoic squirm
D D
Must be somewhat hard telling
Gm Gm D D
To watch them burn me shepherd
D7 D7 G G
But you you're not allowed
D D
You're uninvited
D7M D7M D D
An unfortunate slight


[solo]


D D
Like any uncharted territory
Gm Gm D D
I must seem greatly intriguing
D D
You speak of my love like
Gm Gm D D
You have experienced like mine before
D7 D7 G G
But this is not allowed
D D
You're uninvited
D7M D7M D D
An unfortunate slight


[solo]


D D
I dont think you unworthy
Gm Gm D D
I need a moment to deliberate

Tab de uke por , 11 Jan 2016

Comentários da tab (0)

Nenhum comentário ainda :(
Precisa de ajuda, tem uma dica para compartilhar ou simplesmente quer falar sobre essa música? Inicie a discussão!

Tem algo para dizer?
Compartilhe seus Padrões de batida, acordes ou dicas para tocar esta aba!

Top Tablaturas e Cifras por Alanis Morissette, não perca estas músicas!

Sobre esta música: Uninvited

Nenhuma informação sobre esta música.

Você cobriu Uninvited em seu Ukulele? Compartilhe seu trabalho!
Enviar um cover