House Of Gold taby ukulele według Twenty One Pilots

Taby ukulele bez chwytów.

6.6/10
WydrukujDodaj tab do śpiewnika

Tablature / Chords (Cały utwór)

Font size: A- A A+

Album: 
Rok:  2013
Akord: nieznaneTabulatura (bez chwytów)
A|--5-----5--3--5-------------5-----5--3--5--2-------------------------------|
E|-----0----------0--3--0--------0-------------------------------------------|
C|---------------------------------------------------------------------------|
G|----------------------------------------------2--0-------------------------|

A|--5-----5--3--5-------------5-------5--5-----3-----------------------------|
E|-----0-----------0--3--0-------0-------------------------------------------|
C|---------------------------------------------------------------------------|
G|------------------------------------------0--------------------------------|

⇢ Nie podoba Ci się ta tablatura? Wyświetl 12 innych wersji

taby ukulele według , 04 cze 2016

Komentarze do tabów (0)

Nie ma jeszcze żadnych komentarzy :(
Potrzebujesz pomocy, masz wskazówkę którą chcesz się podzielić, czy chcesz po prostu porozmawiać o tej piosence? Rozpocznij dyskusje

Chcesz coś powiedzieć?
Podziel się swoimi wzorami strummingowymi, akordami lub wskazówkami jak grać ten tabulator!

Top Taby i chwyty Twenty One Pilots, nie przegap tych utworów!

O tej piosence: House Of Gold

Brak informacji o tej piosence.

Wykonałeś cover House Of Gold na swoim ukulele? Podziel się swoją pracą!
Dodaj przeróbkę