Pirates Of The Carribbean Theme (1st Half) taby ukulele według Themes

Taby ukulele bez chwytów.

9.2/10
WydrukujDodaj tab do śpiewnika

Tablature / Chords (Cały utwór)

Font size: A- A A+

Artysta: 
Album:  nieznane
Akord: nieznaneTabulatura (bez chwytów)
|------0-0----0-2--3-3----3s5--2-2----0------2-|
|-0----0-0---------1-1---------0-0-----------2-|
|------0-0---------0-2---------2-2-----------2-|
|---0--2-2---------2-2---------0-0------0--0h2-|

|------0-0----0-2--3-3----3s5--2-2----0-----0-|
|-0----1-1---------1-1---------3-3----------0-|
|------0-0---------0-0---------2-2----------0-|
|---0--2-2---------2-2---------0-0-------0--2-|

|------0-0----0-3--5-5----5-7--8-8----7-----7p0-|
|-0----0-0---------5-5---------7-7----------0---|
|------0-0---------5-5---------7-7----------0---|
|---0--2-2---------5-5---------7-7-------7--0---|

|-0-2--3-3--5--7p0----0-3--2-2--3p0--2-|
|------1-1-----0-----------0-0-------0-|
|------0-0-----0-----------2-2-------2-|
|------2-2-----0-----------1-1-------1-|

taby ukulele według , 10 wrz 2011

Komentarze do tabów (1)

Chcesz coś powiedzieć?
Podziel się swoimi wzorami strummingowymi, akordami lub wskazówkami jak grać ten tabulator!
Filtruj według:
antisoscial avatar
flag for CA(ISO2) (Toronto)
Great job, just 1 or 2 changes needed.
11 Sep 2011
Komentarz

Top Taby i chwyty Themes, nie przegap tych utworów!

O tej piosence: Pirates Of The Carribbean Theme (1st Half)

Brak informacji o tej piosence.

Wykonałeś cover Pirates Of The Carribbean Theme (1st Half) na swoim ukulele? Podziel się swoją pracą!
Dodaj przeróbkę