Far Over The Misty Mountains Cold taby ukulele według Themes

Taby ukulele bez chwytów.

9.5/10
WydrukujDodaj tab do śpiewnika

Tablature / Chords (

Font size: A- A A+

Artysta: 
Album:  nieznane
Akord: nieznaneTabulatura (bez chwytów)
A|--------1-3-5-3-1-0--------0-0--1-3-1-0--|
E|---1-3--------------3----3--------------3|
C|-2---------------------2-----------------|
G|-----------------------------------------|


A|-------|-1-3-5-3-1-0---|-----0-0-|-1-3-1-0--|
E|---1-3-|-------------3-|---3-----|---------3|
C|-2-----|---------------|-2-------|----------|
G|-------|---------------|---------|----------|

Far over|the misty mountains cold,| To dungeons deep | and caverns old

A|-1-3-0-5-|-1-3---0-|-----0-1-|-3-1-0---------|
E|---------|-----3---|---1-----|--------1-3----|
C|---------|---------|-2-------|---------------|
G|---------|---------|---------|---------------|

We must away | ere break of day, | To find our long | forgotten gold

A|-----------|-1-3-1-0-----|-----0-0-0-|-1-3-1-0---0|
E|-----1-3-3-|---------1-3-|---3-------|---------3--|
C|-2-2-------|-------------|-2---------|------------|
G|-----------|-------------|-----------|------------|

The pines were roaring | o o o on the height, | The winds were moaning | i i i in the night


A|-1-3-0-5-|-1-3---0-|-----0-1-1-|-0-----------------|
E|---------|-----3---|---1-------|---1-3-------------|
C|---------|---------|-2---------|-------------------|
G|---------|---------|-----------|-------------------|

The fire was red, | it flaming spread, | The trees like torches, | blazed with light

⇢ Nie podoba Ci się ta tablatura? Wyświetl 1 innych wersji

taby ukulele według , 31 sty 2013

Komentarze do tabów (2)

Chcesz coś powiedzieć?
Podziel się swoimi wzorami strummingowymi, akordami lub wskazówkami jak grać ten tabulator!
Filtruj według:
esparon avatar
flag for GB(ISO2) (Edinburgh)
best verision on here i would say
15 Feb 2018
Komentarz
dundee998 avatar
flag for US(ISO2) (Waldport)
haunting and beautiful! one of my favorite things to play.
16 Feb 2017
Komentarz

Top Taby i chwyty Themes, nie przegap tych utworów!

O tej piosence: Far Over The Misty Mountains Cold

Brak informacji o tej piosence.

Wykonałeś cover Far Over The Misty Mountains Cold na swoim ukulele? Podziel się swoją pracą!
Dodaj przeróbkę