We're Going To Be Friends taby ukulele według The White Stripes

Taby ukulele bez chwytów.

WydrukujDodaj tab do śpiewnika
Tablature / ChordsFont size: A- A A+

Nie wiesz jak przeczytać tab lub chwyt ? Sprawdź te lekcje ukulele:

# Note that this tab was created with a low-G G tuned ukulele in 
# mind (where the fourth string is tuned to a G G note lower than
# the third string's C C) but still sounds half decent when played
# with a standard tuned ukulele.

A||-----------------2--------|
E||-----3-----3-----------3--|
C||--------------------------|
G||--0-----0-----0-----0-----|

# (3x)
||------2-----------2---------||-----3-----------3-----2--|
||o-----------3-----------3--o||-----------3--------------|
||o--------------------------o||--0-----0-----0-----0-----|
||---0-----0-----0-----0------||--------------------------|


|-----------2-----------2--|-----9-----5-----5-----5--|
|-----3-----------3--------|--------------------------|
|--------------------------|--------------0-----0-----|
|--0-----0-----0-----0-----|--7-----7-----------------|


|-----2-----------2-----2--|-----9-----5-----5-----5--|
|-----------3--------------|--------------------------|
|--------------------------|--------------0-----0-----|
|--0-----0-----0-----0-----|--7-----7-----------------|

# (4x)
||------------2-----------2---||-----3-----------3-----2--|
||o-----3-----------3--------o||-----------3--------------|
||o--------------------------o||--0-----0-----0-----0-----|
||---0-----0-----0-----0------||--------------------------|


|-----2-----------2--------|-----9-----5-----5--------|
|-----------3-----------3--|-----------------------3--|
|--------------------------|--------------0-----0-----|
|--0-----0-----0-----0-----|--7-----7-----------------|


|-----2-----------2-----2--|-----9-----5-----5-----5--|
|-----------3--------------|--------------------------|
|--------------------------|--------------0-----0-----|
|--0-----0-----0-----0-----|--7-----7-----------------|

# (3x)
||------------2-----------2---||-----------2-----2-----2--|
||o-----3-----------3--------o||-----3--------------------|
||o--------------------------o||--------------------------|
||---0-----0-----0-----0------||--0-----0-----0-----0-----|


|-----3-----3-----3-----2--|-----2-----2-----2-----2--|
|--------------------------|--------------------------|
|--0-----0-----0-----0-----|--------------------------|
|--------------------------|--0-----0-----0-----0-----|


|-----9-----5-----5-----5--|-----------5-----------5--|
|--------------------------|-----3-----------3--------|
|--------------0-----0-----|--------------------------|
|--7-----7-----------------|--0-----0-----0-----0-----|


|-----5-----------5-----5--||------------2-----------2---||
|-----------3--------------||o-----3-----------3--------o||
|--------------------------||o--------------------------o||
|--0-----0-----0-----0-----||---0-----0-----0-----0------||


|-----3-----3-----3-----2--|-----2-----------2--------|
|--------------------------|-----------3-----------3--|
|--0-----0-----0-----0-----|--------------------------|
|--------------------------|--0-----0-----0-----0-----|


|-----9-----5-----5-----5--|-----------5-----------5--|
|--------------------------|-----3-----------3--------|
|--------------0-----0-----|--------------------------|
|--7-----7-----------------|--0-----0-----0-----0-----|


|-----9-----5-----5-----5--|-----------5-----------5--|
|--------------------------|-----3-----------3--------|
|--------------0-----0-----|--------------------------|
|--7-----7-----------------|--0-----0-----0-----0-----|


|-----------5-----------2--||------3-----------3-----2--|
|-----3-----------3--------||o-----------3--------------|
|--------------------------||o--0-----0-----0-----0-----|
|--0-----0-----0-----0-----||---------------------------|


|-----------2-----------2---||-----0-----4-----4-----0--|
|-----3-----------3--------o||--------------------------|
|--------------------------o||--------------------------|
|--0-----0-----0-----0------||--2-----2-----2-----2-----|


|-----4-----0-----4-----2--|-----3-----3-----3-----2--|
|--------------------------|--------------------------|
|--------------------------|--0-----0-----0-----0-----|
|--2-----2-----2-----2-----|--------------------------|


|-----5-----9-----5-----5--|-----5-----------5-----5--|
|--------------------------|-----------3--------------|
|--------------------------|--------------------------|
|--7-----7-----7-----7-----|--0-----0-----0-----0-----|


|-----5-----5-----5-----2--|-----3-----3-----3-----2--|
|--------------------------|--------------------------|
|--------------------------|--0-----0-----0-----0-----|
|--0-----0-----0-----0-----|--------------------------|


|-----2-----2-----2-----2--|-----9-----5-----5-----5--|
|--------------------------|--------------------------|
|--------------------------|--------------0-----0-----|
|--0-----0-----0-----0-----|--7-----7-----------------|


|-----5-----5--------------|-----9-----5-----5-----5--|
|-----------------3-----3--|--------------------------|
|--------------------------|--------------0-----0-----|
|--0-----0-----0-----0-----|--7-----7-----------------|


|-----------5-----------5--|-----9-----5-----5-----5--|
|-----3-----------3--------|--------------------------|
|--------------------------|--------------0-----0-----|
|--0-----0-----0-----0-----|--7-----7-----------------|


|--5----------------||
|--3----------------||
|--2----------------||
|--0----------------||

 

Komentarze do tabów (4)
musisz być zalogowany aby dołączyć do dyskusji
lub Zarejestruj

 

Vee182 avatar
flag for AU(ISO2) (Melbourne)
Boohoo, It sounds fine on a standard, get over yourself the site isn't "GCEA Ukulele Tabs"
25 Nov 2011
alyx911xx avatar
flag for US(ISO2) (CR)
It's pretty good
10 Feb 2010
ukemadness avatar
I disagree that it sounds good on a standard tuned ukulele, and don't appreciate that it is conditional on the specific type of uke. just my opinion.
03 Feb 2010
CaptainUke avatar
flag for US(ISO2) (Dobbs Ferry)
I LIKE it!
28 Jan 2010
O tej piosence

Brak informacji o tej piosence.