Pink Panther Theme Song taby ukulele według The Pink Panther

Taby ukulele bez chwytów.

7.8/10
WydrukujDodaj tab do śpiewnika

Tablature / Chords (Cały utwór)

Font size: A- A A+

Artysta: 
Album:  nieznane
Akord: nieznaneTabulatura (bez chwytów)
A---------------------------------
E ----------------6/5----5-4-1-----
C-1/2-4/5-1/2-4/5----2-5------2-0-2
G---------------------------------

A----------------1-0--0-5-4
E--------------------1-----
C-1/2-4/5-1/2-4/5----------
G--------------------------

A-5-3-0-----------------------------------
E------3-1---3-3-3-3-1-------1------1-----
C----------2-----------2-0-2--2-0-2--2-0-2
G-----------------------------------------

This is my first tab. if you have any suggestions you can send me a message. happy ukuleleing!

taby ukulele według , 01 kwi 2011

Komentarze do tabów (2)

Chcesz coś powiedzieć?
Podziel się swoimi wzorami strummingowymi, akordami lub wskazówkami jak grać ten tabulator!
Filtruj według:
gothicave avatar
mobile flag for CA(ISO2) (Toronto)
Really works great thanks!
04 Sep 2018
Komentarz
YesSirIndeed avatar
flag for US(ISO2) (Loveland)
Prett good. A couple of iff parts after sliding, but pretty good.
02 Apr 2011
Korekta

Top Taby i chwyty The Pink Panther, nie przegap tych utworów!

O tej piosence: Pink Panther Theme Song

Brak informacji o tej piosence.

Wykonałeś cover Pink Panther Theme Song na swoim ukulele? Podziel się swoją pracą!
Dodaj przeróbkę