Twelve Roses taby ukulele według The Beach Fossils

Taby ukulele bez chwytów.

Oceń piosenkę!
WydrukujDodaj tab do śpiewnika

Tablature / Chords (

Font size: A- A A+

Album:  nieznane
Trudność: 
5
(zaawansowany)
Akord: E, A, F#m, Gbm, C#m, Tabulatura (bez chwytów)
A|----------------------| E|-4---4---4---4---4----|
C|----------------------|
G|---4---4---6---6---4--|

A|---7---7-----------7--|
E|-----------2---2------|
C|----------------------|
G|-6---6---6---6---6----|
A|-------2-2-2-4-4-4-7-7-9-7--| E|-0-0-0----------------------|
C|----------------------------|
G|----------------------------|

A|----------------------------|
E|-55555555555----------------|
C|-------------666666666666---|
G|----------------------------|

A|---------------------------------7777--7--|
E|------------4-44-5-5-5-4-4-4-4-4-----22---|
C|------------------------------------------|
G|--6-6-6-6-4-------------------------------|

taby ukulele według , 09 lip 2012

Komentarze do tabów (0)

Nie ma jeszcze żadnych komentarzy :(
Potrzebujesz pomocy, masz wskazówkę którą chcesz się podzielić, czy chcesz po prostu porozmawiać o tej piosence? Rozpocznij dyskusje

Chcesz coś powiedzieć?
Podziel się swoimi wzorami strummingowymi, akordami lub wskazówkami jak grać ten tabulator!

Top Taby i chwyty The Beach Fossils, nie przegap tych utworów!

O tej piosence: Twelve Roses

Brak informacji o tej piosence.

Wykonałeś cover Twelve Roses na swoim ukulele? Podziel się swoją pracą!
Dodaj przeróbkę