End Theme taby ukulele według Spongebob Squarepants

Taby ukulele bez chwytów.

9/10
WydrukujDodaj tab do śpiewnika

Tablature / Chords (Cały utwór)

Font size: A- A A+

Album:  nieznane
Akord: nieznaneTabulatura (bez chwytów)
A|-------------------------------4-------|
E|----4-----4-----4-----4--7-6-7---7--4--| (x4)
C|-4--4-----4--4--4-----4-------------4--|
G|-------4-----------4-----4-------------|


A|-------6-----------6----------6-9-7----|
E|-7-5------5--7-5-----5--7-5------------| (x1)
C|-----6----6------6---6------6----------|
G|-4-----4-----4-----4----4-----4---4----|


A|--------------------4------------------|
E|----4-----4---7-6-7---7--4-------------| (x2)
C|-4--4-----4--------------4-------------|
G|-------4------4------------------------|


A|-7-7-9-11-9-11-9----7-7--9--10-10-10-9-|
E|-----7-7--7-7--7-11-4-4-----5--5--5----| (x1)
C|-----8-8--8-8--8------------7--7--7----|
G|-4-4----------------4-4----------------|

A|--------------------4------------------|
E|----4-----4---7-6-7---7--4-------------| (x1)
C|-4--4-----4--------------4-------------|
G|-------4------4------------------------|

A|-----6-4---6-7-------------------------|
E|-7-6-5---7-----------------------------| (x1)
C|---------------------------------------|
G|-4-------4---4-------------------------|

A|---------------------------------------|
E|----4-----4----------------------------| (x1)
C|-4--4-----4---4------------------------|
G|-------4-------------------------------|

⇢ Nie podoba Ci się ta tablatura? Wyświetl 1 innych wersji

taby ukulele według , 26 lis 2017

Komentarze do tabów (1)

Chcesz coś powiedzieć?
Podziel się swoimi wzorami strummingowymi, akordami lub wskazówkami jak grać ten tabulator!
Filtruj według:
ukemaster76 avatar
flag for US(ISO2) (Vernon)
if you put a capo on the 4th fret, it will be wayyyyyyyyyyyyyyyy easier, trust me
12 Aug 2018
Komentarz

Top Taby i chwyty Spongebob Squarepants, nie przegap tych utworów!

O tej piosence: End Theme

Brak informacji o tej piosence.

Wykonałeś cover End Theme na swoim ukulele? Podziel się swoją pracą!
Dodaj przeróbkę