In Bloom taby ukulele według Nirvana

Taby ukulele bez chwytów.

10/10
WydrukujDodaj tab do śpiewnika

Tablature / Chords (Cały utwór)

Font size: A- A A+

Artysta: 
Album: 
Rok:  1991
Akord: nieznaneTabulatura (bez chwytów)
...A#5......G5......F5.......G#5...........A#5......G5......F5.......G#5..
A|-1---1-1--5~~~----3---3-3--x~~~-x-x--x---1---1-1--5~~~----3---3-3--x---|
E|-1---1-1--3~~~----1---1-1--4~~~-4-4--4---1---1-1--3~~~----1---1-1--4---|
C|-x---x-x--2~~~----0---0-0--3~~~-3-3--3---x---x-x--2~~~----0---0-0--3---|
G|-3---3-3--x~~~----x---x-x--1~~~-1-1--1---3---3-3--x~~~----x---x-x--1---|
|___| |__| |___| |__| |_|_| | |___| |__| |___| |__|

...A#5............F#5............D#5............B5......A5.........
A|-1-1-1-1-1--x-1-4-4-4-4-4--x-4-6-6-6-6-6--x-6-2-2-2-2-0-0-0-0---|
E|-1-1-1-1-1--x-1-2-2-2-2-2--x-2-6-6-6-6-6--x-6-2-2-2-2-0-0-0-0---|
C|-x-x-x-x-x--x-x-1-1-1-1-1--x-1-3-3-3-3-3--x-3-x-x-x-x-x-x-x-x---|x2
G|-3-3-3-3-3--x-3-x-x-x-x-x--x-x-3-3-3-3-3--x-3-x-x-x-x-x-x-x-x---|
|_|_|_| |__|_| |_|_|_| |__|_| |_|_|_| |__|_| |_|_|_| |_|_|_|

⇢ Nie podoba Ci się ta tablatura? Wyświetl 5 innych wersji

taby ukulele według , 05 sie 2018

Komentarze do tabów (0)

Nie ma jeszcze żadnych komentarzy :(
Potrzebujesz pomocy, masz wskazówkę którą chcesz się podzielić, czy chcesz po prostu porozmawiać o tej piosence? Rozpocznij dyskusje

Chcesz coś powiedzieć?
Podziel się swoimi wzorami strummingowymi, akordami lub wskazówkami jak grać ten tabulator!

O tej piosence: In Bloom

Brak informacji o tej piosence.

Wykonałeś cover In Bloom na swoim ukulele? Podziel się swoją pracą!
Dodaj przeróbkę