Weeping Willow (live Version) taby ukulele według Mild High Club

6 Chwyty użyte w piosence: Dm, Am, B7, E7, D, F

Oceń piosenkę!
WydrukujDodaj tab do śpiewnika

Tablature / Chords (Cały utwór)

Font size: A- A A+

Artysta: 
Album:  nieznane
Trudność: 
3.5
(zaawansowany)
Akord: nieznaneChwyty i tabulatura
Intro/(Verse) repeat x2
A|7-5-3-2-3-2-0--3-2-0-2-2----------------|
E|--------------------4-0-----------------|
C|----------------------------------------|
G|----------------------------------------|

Akin the Weeping Willow describes your imagery
I've seen it fading yellow and eager to sing with me
A|7-5-3-2-3-2-0--3-2-0-2-2----------------|
E|--------------------4-0-----------------|
C|----------------------------------------|
G|----------------------------------------|

(Chorus)
A|0-0-------0-0---------------------------|
E|0--3-0----0--3-0-3----------------------|
C|0-----0-2-0------0----------------------|
G|2---------2------2----------------------|

Verse x2

Just see the colors bleeding it's a beautiful sight to see
And when your vision's lazy so do the paintings seem
A|7-5-3-2-3-2-0--3-2-0-2-2----------------|
E|--------------------4-0-----------------|
C|----------------------------------------|
G|----------------------------------------|

Chorus

Dm Dm Am Am B7 B7 E7 E7

Improvise

D D F F D D E7 E7

taby ukulele według , 26 lip 2017

Komentarze do tabów (1)

Chcesz coś powiedzieć?
Podziel się swoimi wzorami strummingowymi, akordami lub wskazówkami jak grać ten tabulator!
Filtruj według:
cameliabrower860 avatar
The music is slow, the atmosphere is inviting... perhaps we can rewrite the rhythm of the night with a touch more... closeness? f1nd me on cameliabrower_mooo_com change _ to dot
12 Jul 2024
Komentarz

Top Taby i chwyty Mild High Club, nie przegap tych utworów!

O tej piosence: Weeping Willow (live Version)

Brak informacji o tej piosence.

Wykonałeś cover Weeping Willow (live Version) na swoim ukulele? Podziel się swoją pracą!
Dodaj przeróbkę