Anesthesia (pulling Teeth) taby ukulele według Metallica

Taby ukulele bez chwytów.

7.3/10
WydrukujDodaj tab do śpiewnika

Tablature / Chords (Cały utwór)

Font size: A- A A+

Artysta: 
Album: 
Rok:  1983
Akord: nieznaneTabulatura (bez chwytów)
A-------8--12-----8--12-------8--12------8-12--------8--12-----|
E--/10----------10----------10-----------10----------10-------------|
C--------------------------------------------------------------|
G--------------------------------------------------------------|
A-------7-10---7-10-----7-10------7--10-------7---10-----------|
E--10-\8------8--------8---------8---------8--------------------|
C--------------------------------------------------------------|
G--------------------------------------------------------------|
A-------8--12-----8--12-------8--12------8-12--------8--12-----|
E--/10----------10----------10-----------10----------10-------------|
C--------------------------------------------------------------|
G--------------------------------------------------------------|
A-------7-10---7-10-----7-10------7--10-------7---10-----------|
E--10-\8------8--------8---------8---------8--------------------|
C--------------------------------------------------------------|
G--------------------------------------------------------------|
A-------8--12-----8--12-------8--12------8-12--------8--12-----|
E---10----------10----------10-----------10----------10-------------|
C--------------------------------------------------------------|
G--------------------------------------------------------------|
A---------10---------10---------10----------10----------10-----|
E--10-/12----------12--------12-----------12----------12--------|
C---------------------------------------------------------|
G-------------4--------4----------4----------4----------4-|
A--------12-----------12-----------------------10--------10----|
E--12-/13----------13-----------13----------12----------12-------|
C----------------------------------------------------------|
G-----------5------------5----------5-----------4--------4-|
A-------------7~~---5~~~----------------------------------|
E-12-----------5~~---3~~~----------------------------------|
C---------------------------------------------------------|
G-----4---------------------------------------------------|

A------------------------------2---------------------------|
E-----5------1-----0---------------------------------------|
C--2-----2------2--------0-----2---------------------------|
G------------------------------0---------------------------|

A---------------------------------------------------------|
E-----5------1-----0--------------------------------------|
C--2-----2------2--------0-----2--------------------------|
G------------------------------0--------------------------|

taby ukulele według , 28 lut 2013

Komentarze do tabów (0)

Nie ma jeszcze żadnych komentarzy :(
Potrzebujesz pomocy, masz wskazówkę którą chcesz się podzielić, czy chcesz po prostu porozmawiać o tej piosence? Rozpocznij dyskusje

Chcesz coś powiedzieć?
Podziel się swoimi wzorami strummingowymi, akordami lub wskazówkami jak grać ten tabulator!

O tej piosence: Anesthesia (pulling Teeth)

Brak informacji o tej piosence.

Wykonałeś cover Anesthesia (pulling Teeth) na swoim ukulele? Podziel się swoją pracą!
Dodaj przeróbkę