Stairway To Heaven taby ukulele według Led Zeppelin

Taby ukulele bez chwytów.

9.3/10
WydrukujDodaj tab do śpiewnika

Tablature / Chords (

Font size: A- A A+

Artysta: 
Album: 
Rok:  1971
Akord: nieznaneTabulatura (bez chwytów)
|-------0-2-----2-3-----3-------0-------0---------2-0-0---0-/8-7-|
|-----0-----0-------0-----2---2-------1-----1-----3-0-0----------|
|---0---------0-------0-----2-------0---------0---2-0-0----------|
|-2-------1-------0-------2-------2-------------2-0-2-2----------|

|-------0-2-----2-3-----3-------0-------0---------2-0-0----------|
|-----0-----0-------0-----2---2-------1-----1-----3-0-0----------|
|---0---------0-------0-----2-------0---------0---2-0-0----------|
|-2-------1-------0-------2-------2-------------2-0-2-2----------|

|-0-2-3-----3-0-----0-0-----0-2h3---0-2-3-----3-2-----2-2p0-0----|
|---------0-----2-------1---------0-------0-------3-----3---2----|
|-------0-----2---2---0---0-----------------0-------2---2---2----|
|-----------------------------2-----------------0----------------|

|-0-2-3-----3-0-----0-0-----0-2h3---0-2-3-----3-------0-7-7-7----|
|---------0-----2-------1---------0---------0-------2---5-5-5----|
|-------0-----2---2---0---0---------------0-------2-----5-5-5----|
|-----------------------------2-----------------2-------5-5-5----|

|-------0-2-----2-3-----3-------0-------0---------2-0-0---0-/8-7-|
|-----0-----0-------0-----2---2-------1-----1-----3-0-0----------|
|---0---------0-------0-----2-------0---------0---2-0-0----------|
|-2-------1-------0-------2-------2-------------2-0-2-2----------|

|-------0-2-----2-3-----3-------0-------0---------2-0-0------2---|
|-----0-----0-------0-----2---2-------1-----1-----3-0-0------3---|
|---0---------0-------0-----2-------0---------0---2-0-0------2---|
|-2-------1-------0-------2-------2-------------2-0-2-2------0---|

|----------------0--0------------------2--0-----0----------------|
|-3--3-3-3-3--0--3--2---3--3-3-3-3--0--3--2--3--2--3--3-3-3-3--0-|
|-0--0-0-0-0--0--2--2---0--0-0-0-0--0--4--2--0--2--0--0-0-0-0--0-|
|-0--0-0-0-0--0--2--2---0--0-0-0-0--0--0--2--0--2--0--0-0-0-0--0-|

|-0--0------------------2--0-----0-------------------------------|
|-3--2---3--3-3-3-3--0--3--2--3--2-------------------------------|
|-2--2---0--0-0-0-0--0--4--2--0--2-------------------------------|
|-2--2---0--0-0-0-0--0--0--2--0--2-------------------------------|

|-0h2-3-----3-2-----2-2h3-------0---0-2-3-----3-2-----2--0-------|
|---------0-------3-------0---0-------------0-------3-1--0-------|
|-------0-------2-----------0-------------0-------2---0--0-------|
|-------------0-------2-------------------------0-----2--2-------|

|-0-2-3-----3-2-----2-0---0-0-0--0-0-0--0-0-0--0--0--3--3--3--3--|
|---------0-------3---2---0-2-3--0-2-3--0-2-3--3--2--0--2--0--2--|
|-------0-------2-----2---2-2-2--2-2-2--2-2-2--2--2--0--0--0--0--|
|-------------0-------2---2-2-2--2-2-2--2-2-2--2--2--0--0--0--0--|

|-0-0-0--0-0-0--0-0-0--0--0--3--3--0--||--0-0---2-2---0-0--0-0--||
|-0-2-3--0-2-3--0-2-3--3--2--0--2--3--||.-0-0---3-3---1-1--1-1-.||
|-2-2-2--2-2-2--2-2-2--2--2--0--0--2--||.-0-0---2-2---0-0--0-0-.||
|-2-2-2--2-2-2--2-2-2--2--2--0--0--0--||--2-2---0-0---2-2--2-2--||

h = hammer-on
p = pull-off
/ = slide up

⇢ Nie podoba Ci się ta tablatura? Wyświetl 28 innych wersji

taby ukulele według , 27 maj 2010

Komentarze do tabów (9)

Chcesz coś powiedzieć?
Podziel się swoimi wzorami strummingowymi, akordami lub wskazówkami jak grać ten tabulator!
Filtruj według:
kingmorgan avatar
wait nevermind
01 Jan 2013
Komentarz
kingmorgan avatar
shouldn't it be like this instead of having the c and e string plucks switched?

--------0-2-----2-3-----3-------0-------0---
------0-------0------0----2---2-------1-----
----0-------0-------0------2-------0--------
--2-------1-------0-------2-------2---------
29 Dec 2012
Komentarz
ukecolby avatar
flag for US(ISO2) (Fuquay Varina)
thank you SOOOO much!!!
22 Feb 2012
Komentarz
b0$$ avatar
flag for US(ISO2) (Johns Creek)
this tab is boss but im awful at playing uke but this tab is great
15 Feb 2012
Komentarz
tooniner avatar
flag for US(ISO2) (San Antonio)
Best Stairway tab on this site. Almost as good as one in a song book I bought. Wish it could show the chord names just above the tab line.
01 Jan 2012
Komentarz
Squab34 avatar
flag for US(ISO2) (Spokane)
Fav. Song, fav. Tab.
25 Sep 2011
Komentarz
UkesFather avatar
flag for US(ISO2) (America)
It might be overrated to do this on guitar but to do it on ukulele? AWESOME
03 Jul 2011
Komentarz
Van595 avatar
flag for CA(ISO2) (Ontario PP)
yea sounds great, i try to play along lol
20 Jun 2011
Komentarz
UkeChicken avatar
awesome :)
07 Jun 2010
Komentarz

Top Taby i chwyty Led Zeppelin, nie przegap tych utworów!

O tej piosence: Stairway To Heaven

Brak informacji o tej piosence.

Wykonałeś cover Stairway To Heaven na swoim ukulele? Podziel się swoją pracą!
Dodaj przeróbkę