Yesterday taby ukulele według Jake Shimabukuro

Taby ukulele bez chwytów.

4.3/10
WydrukujDodaj tab do śpiewnika

Tablature / Chords (

Font size: A- A A+

Artysta: 
Album: 
Rok:  2005
Akord: nieznaneTabulatura (bez chwytów)
This is "Yesterday" as played by Jake Shimabukuro in his instructional video on #strumming, available on youtube.

A|0-----0-2-4-5-7-8-7-5-5--3-1-5-5-3-1-0---1-0-0-----0-----1-0-0
E|1-1-1-0---3---5-----5-5--3-1-----0-----3-1-1-1-3-1---3---1-1-1
C|0-----2---4---7-----5-5--4-2-----0-------2-0-0-0-2---2-2-2-0-0
G|0------------------------5-3-------------3-2-2-0-2---4---3-2-2

-0-0-5-7-8-7-5-7-5-3-5-0-0-0-5-7-8-7-5-7-5-3-7-8------
-------------------------------------------------8-6-5
------------------------------------------------------
------------------------------------------------------

Repeat as necessary.

taby ukulele według , 12 mar 2013

Komentarze do tabów (0)

Nie ma jeszcze żadnych komentarzy :(
Potrzebujesz pomocy, masz wskazówkę którą chcesz się podzielić, czy chcesz po prostu porozmawiać o tej piosence? Rozpocznij dyskusje

Chcesz coś powiedzieć?
Podziel się swoimi wzorami strummingowymi, akordami lub wskazówkami jak grać ten tabulator!

Top Taby i chwyty Jake Shimabukuro, nie przegap tych utworów!

O tej piosence: Yesterday

Brak informacji o tej piosence.

Wykonałeś cover Yesterday na swoim ukulele? Podziel się swoją pracą!
Dodaj przeróbkę