Police Dog Blues taby ukulele według Hugh Laurie

Taby ukulele bez chwytów.

Oceń piosenkę!
WydrukujDodaj tab do śpiewnika

Tablature / Chords (

Font size: A- A A+

Artysta: 
Album: 
Rok:  2011
Akord: nieznaneTabulatura (bez chwytów)
P     H                H                  
A|-2-----5----2-------7-4--------------5-4-2----------2---2----|
E|---2-2------------0-----0-----0----0-----------0-------------|
C|--------------0-1----------------4----------------4----------|
G|---------4--------------4-0-1--------------0-1--------1------|
H
|-----5-4-2-------|-----5------|
|---0-----------0-|---0---2----|
|-4---------------|-4----------|
|-----------0-1---|------------|

|-----------4----------|
|---3-4---3-----3-4---|
|-4-----------4-------|
|-------4---4-------4-|
H H
|-----------5-4-2-|-----------5---2-|-----5---2-------|
|-----0---0-------|-----0---0---2---|-2-2-----------0-|
|-------4---------|-------4---------|-----------0-1---|
|-0-1-------------|-0-1-------------|-------4---------|
P H H
|-7-4-------------|-5-4-2---------2-|---2-|
|-----0-----0---0-|-----------0-----|-----|
|-------------4---|-------------4---|-----|
|-----4-0-1-------|-------0-1-------|-1---|

taby ukulele według , 24 kwi 2012

Komentarze do tabów (0)

Nie ma jeszcze żadnych komentarzy :(
Potrzebujesz pomocy, masz wskazówkę którą chcesz się podzielić, czy chcesz po prostu porozmawiać o tej piosence? Rozpocznij dyskusje

Chcesz coś powiedzieć?
Podziel się swoimi wzorami strummingowymi, akordami lub wskazówkami jak grać ten tabulator!

Top Taby i chwyty Hugh Laurie, nie przegap tych utworów!

O tej piosence: Police Dog Blues

Brak informacji o tej piosence.

Wykonałeś cover Police Dog Blues na swoim ukulele? Podziel się swoją pracą!
Dodaj przeróbkę