Prelude (Wstęp) taby ukulele według Final Fantasy 7

Taby ukulele bez chwytów.

WydrukujDodaj tab do śpiewnika
Tablature / ChordsFont size: A- A A+

Nie wiesz jak przeczytać tab lub chwyt ? Sprawdź te lekcje ukulele:

# Sounds better in Low G G

F F

A|-----0-3-8-10-12-10-8-3-0---------------|
E|-1-3----------------------3-1-----------|
C|----------------------------------------|
G|----------------------------------------|

Dm Dm

A|-------0-5-7-8-7-5-0--------------------|
E|---0-1---------------1-0----------------|
C|-2-----------------------2--------------|
G|----------------------------------------|


F F

A|-----0-3-8-10-12-10-8-3-0---------------|
E|-1-3----------------------3-1-----------|
C|----------------------------------------|
G|----------------------------------------|

Dm Dm

A|-------0-5-7-8-7-5-0--------------------|
E|---0-1---------------1-0----------------|
C|-2-----------------------2--------------|
G|----------------------------------------|

Bb Bb

A|---------1-3-5-3-1----------------------|
E|-------1-----------1--------------------|
C|---0-2---------------2-0----------------|
G|-3-----------------------3--------------|

C C

A|---------3-5-7-5-3----------------------|
E|-----0-3-----------3-0------------------|
C|-0-2-------------------2-0--------------|
G|----------------------------------------|

C# C#

A|---------4-6-8-6-4----------------------|
E|-----1-4-----------4-1------------------|
C|-1-3-------------------3-1--------------|
G|----------------------------------------|

Eb Eb

A|---------6-8-10-8-6---------------------|
E|-----3-6------------6-3-----------------|
C|-3-5--------------------5-3-------------|
G|----------------------------------------|

F F

A|-----0-3-8-10-12-10-8-3-0---------------|
E|-1-3----------------------3-1-----------|
C|----------------------------------------|
G|----------------------------------------|

# Enjoy! :D

 

Komentarze do tabów (0)
Nie ma jeszcze żadnych komentarzy :(
Potrzebujesz pomocy, masz wskazówkę którą chcesz się podzielić, czy chcesz po prostu porozmawiać o tej piosence? Rozpocznij dyskusje

musisz być zalogowany aby dołączyć do dyskusji
lub Zarejestruj

 

O tej piosence

Brak informacji o tej piosence.