Do Her taby ukulele według Family Guy

Taby ukulele bez chwytów.

Oceń piosenkę!
WydrukujDodaj tab do śpiewnika

Tablature / Chords (

Font size: A- A A+

Artysta: 
Album:  nieznane
Akord: nieznaneTabulatura (bez chwytów)
S                 
A|--------------------------------------------------|-------------------|
E|----3----3---------5-----5-------3------------3---|-3--5---3----------|
C|-4---------4---5------------5---------------------|-------------5-----|
G|-------5---------------5-------------4--7--4------|-------------------|

A|------------------------------|
E|--5-----------------5--------|
C|-----------------------------|
G|-------5----10---5------------|

taby ukulele według , 22 kwi 2013

Komentarze do tabów (0)

Nie ma jeszcze żadnych komentarzy :(
Potrzebujesz pomocy, masz wskazówkę którą chcesz się podzielić, czy chcesz po prostu porozmawiać o tej piosence? Rozpocznij dyskusje

Chcesz coś powiedzieć?
Podziel się swoimi wzorami strummingowymi, akordami lub wskazówkami jak grać ten tabulator!

Top Taby i chwyty Family Guy, nie przegap tych utworów!

O tej piosence: Do Her

Brak informacji o tej piosence.

Wykonałeś cover Do Her na swoim ukulele? Podziel się swoją pracą!
Dodaj przeróbkę