Autumn Leaves taby ukulele według Eva Cassidy

Taby ukulele bez chwytów.

8.3/10
WydrukujDodaj tab do śpiewnika

Tablature / Chords (

Font size: A- A A+

Artysta: 
Rok:  2015
Akord: nieznaneTabulatura (bez chwytów)
|---------3------3--------2---2--2--------0------0--------|
||--0--2-3-0---0--2----0-2-2---2--0------0-2---2--2--------|
||---------0---0--0--2-----2---2--0--0-2---4---4--3----1-3-|
||---------2---2--2--------0---0--0--------2---2--2--4-----|


^
|-2------2--------3------3--------2---2--2--------0------0|
|-3------4--0-2-3-0---0--2----0-2-2---2--0------0-2---2--2|
|-4------4--------0---0--0--2-----2---2--0--0-2---4---4--3|
|-0------4--------2---2--2--------0---0--0--------2---2--2|


^
|-----0---------------------2-------------2---------------|
|---2---3-0---------------2---2---2-2-0-2-3----------32-3-|
|---------4-----------3-4-4-------3-------4---------------|
|---------4---------------2-------2-------0---------------|

|-0-------0--/5-3-2----------21-2-3-3-0-0-------3-2---2---|
|-0-------2-------2---------------2-------2-------3---3---|
|-0-------0-2-----2---------------4-------3-------4---3---|
|-2-------2-------0---------------2-------2-------0---0---|

|---------0-----------------------------------------------||
|-3---3-0-0-----3-2-----3-0-------------------------------||
|-2---1---0-------3-------4-------------------------------||
|-0---0---0-------2-------0-------------------------------||

taby ukulele według , 26 maj 2010

Komentarze do tabów (1)

Chcesz coś powiedzieć?
Podziel się swoimi wzorami strummingowymi, akordami lub wskazówkami jak grać ten tabulator!
Filtruj według:
sacramentokhan avatar
flag for US(ISO2) (Sacramento)
Very nice
06 Mar 2021
Komentarz

Top Taby i chwyty Eva Cassidy, nie przegap tych utworów!

O tej piosence: Autumn Leaves

Brak informacji o tej piosence.

Wykonałeś cover Autumn Leaves na swoim ukulele? Podziel się swoją pracą!
Dodaj przeróbkę