Can't Help Falling In Love taby ukulele według Elvis Presley

Taby ukulele bez chwytów.

9.2/10
WydrukujDodaj tab do śpiewnika

Tablature / Chords (Cały utwór)

Font size: A- A A+

Artysta: 
Album: 
Rok:  1961
Akord: nieznaneTabulatura (bez chwytów)
A|------0-2-3-2-0---------0-2-3-2-0-|
E|------------------0-2-------------|
C|----------------2-----------------|
G|0-7-0-----------------0----------0| x2



A|--2-5-9-9-7---2-5-9-9-7---2-5-9-9-7-5-5-2-5-2-3|
E|2-----------2-----------2----------------------|
C|-----------------------------------------------|
G|-----------------------------------------------|



A|------0-2-3-2-0---------0-2-3-2-0--|
E|------------------0-2--------------|
C|----------------2------------------|
G|0-7-0-----------------0-----------0|



A|--2-5-9-9-7---2-5-9-9-7---2-5-9-9-7-5-5-2-5-2-3|
E|2-----------2-----------2----------------------|
C|-----------------------------------------------|
G|-----------------------------------------------|



A|------0-2-3-2-0---------0-2-3-2-0--|
E|------------------0-2--------------|
C|----------------2------------------|
G|0-7-0-----------------0-----------0|



A|--------0-2-3-2-0--|
E|--0-2--------------|
C|2------------------|
G|------0-----------0|

⇢ Nie podoba Ci się ta tablatura? Wyświetl 14 innych wersji

taby ukulele według , 05 kwi 2015

Komentarze do tabów (1)

Chcesz coś powiedzieć?
Podziel się swoimi wzorami strummingowymi, akordami lub wskazówkami jak grać ten tabulator!
Filtruj według:
aishik avatar
this is excellent, thank you!
19 Feb 2019
Komentarz

Top Taby i chwyty Elvis Presley, nie przegap tych utworów!

O tej piosence: Can't Help Falling In Love

Brak informacji o tej piosence.

Wykonałeś cover Can't Help Falling In Love na swoim ukulele? Podziel się swoją pracą!
Dodaj przeróbkę