Ghost And Stuff taby ukulele według Deadmau5

Taby ukulele bez chwytów.

WydrukujDodaj tab do śpiewnika
Tablature / ChordsFont size: A- A A+

Nie wiesz jak przeczytać tab lub chwyt ? Sprawdź te lekcje ukulele:

A|8----5----3----1----------------------------------------------------------|
e|8----5----3----1----------------------------------------------------------|
c|--------------------------------------------------------------------------|
G|--------------------------------------------------------------------------|

A|-1-1-1-1----1-1--------1-1-1----1----3+-----------------------------------|
E|2--------------2+---2-1---------------------------------------------------|
C|-5-5-5-5----5-5--------5-5-5----5-----------------------------------------|
G|-3-3-3-3----3-3--------3-3-3----3-----------------------------------------|

A|1-----------------1-------------------------------------------------------|
E|1-5-5-5-5----3----1-------------------------------------------------------|
C|--2-2-2-2----0-------3-3-3-3-3-3------------------------------------------|
G|3-7-7-7-7----5----3--1-1-1-1-1-1------------------------------------------|
P P P P P P P
A|--m---m---m---m------m-------m----1-m-------------------------------------|
E|6---6---6---6------3-------1----------------------------------------------|
C|5-m-5-m-5-m-5-m----2-m-----0-m----3-m-------------------------------------|
G|--------------------------------------------------------------------------|
P P P P P P P P
A|--m---m---m---m------m-------m----0-m-1-m---------------------------------|
E|6---6---6---6------3-------1----------------------------------------------|
C|5-m-5-m-5-m-5-m----2-m-----0-m----2-m-3-m---------------------------------|
G|--------------------------------------------------------------------------|
A|3-3-3-3----3-3--------3-3-3--3-3+-1---------------------------------------|
E|---------------2+--2-1----------------------------------------------------|
C|7-7-7-7----7-7--------7-7-7--7----5---------------------------------------|
G|5-5-5-5----5-5--------5-5-5--5----3---------------------------------------|

A|---------------------------------------------------------------------------|
E|----------5---3------------------------------------------------------------|
C|------------------5-5-5-5-5-5-5--------------------------------------------|
G|5-5-5-5--------------------------------------------------------------------|

 

Komentarze do tabów (3)
musisz być zalogowany aby dołączyć do dyskusji
lub Zarejestruj

 

andrewlopez avatar
flag for US(ISO2) (corpus christi)
to the people that cant play this im sorry it makes it easyer if your playing the really hard and spread out chords with some friends that also have a ukulele thats what i do
20 Aug 2012
Monkeycamera avatar
Don't just use the tab converter... this is near impossible to play because it was a guitar tabs.
17 Jul 2012
TheBridge avatar
PLEASE POST CHORDS:)
05 May 2012
O tej piosence

Brak informacji o tej piosence.