Iron Man taby ukulele według Black Sabbath

0 Chwyty użyte w piosence:

7.7/10
WydrukujDodaj tab do śpiewnika

Tablature / Chords (Cały utwór)

Font size: A- A A+

Artysta: 
Album: 
Rok:  1970
Akord: nieznaneChwyty i tabulatura
Iron man

A|-----------5-4-5-4-5-4--------|
E|---5--5-7-7-----------5-5-7-7-|
C|-7----------------------------|
G|------------------------------|

Main riff

⇢ Nie podoba Ci się ta tablatura? Wyświetl 5 innych wersji

taby ukulele według , 29 sty 2010

Komentarze do tabów (1)

Chcesz coś powiedzieć?
Podziel się swoimi wzorami strummingowymi, akordami lub wskazówkami jak grać ten tabulator!
Filtruj według:
Konstantin248 avatar
|-----------5-4-5-4-5-4--------|
|---5--5-7-7-----------5-5-7-7-|
|-6------------------------------|
|--------------------------------|

Source: www.ukulele-tabs.com

Source: www.ukulele-tabs.com
17 Apr 2020
Komentarz

Top Taby i chwyty Black Sabbath, nie przegap tych utworów!

O tej piosence: Iron Man

Brak informacji o tej piosence.

Wykonałeś cover Iron Man na swoim ukulele? Podziel się swoją pracą!
Dodaj przeróbkę