Ain't No Sunchine taby ukulele według Bill Withers

Taby ukulele bez chwytów.

Oceń piosenkę!
WydrukujDodaj tab do śpiewnika

Tablature / Chords (

Font size: A- A A+

Artysta: 
Album:  nieznane
Akord: nieznaneTabulatura (bez chwytów)
A|------------2-1------------------|
E|---0-3-3/5------3-3/5-----------|
C|----------------------------------|
G|----------------------------------| X2



A|--0-0-3-7v--5-3-5-------5-3------------3--5-3-----------------|
E|---------------------------------5-3-5-5----------5-3--55-------|
C|-------------------------------------------------------------------|
G|-------------------------------------------------------------------|

taby ukulele według , 01 maj 2016

Komentarze do tabów (0)

Nie ma jeszcze żadnych komentarzy :(
Potrzebujesz pomocy, masz wskazówkę którą chcesz się podzielić, czy chcesz po prostu porozmawiać o tej piosence? Rozpocznij dyskusje

Chcesz coś powiedzieć?
Podziel się swoimi wzorami strummingowymi, akordami lub wskazówkami jak grać ten tabulator!

Top Taby i chwyty Bill Withers, nie przegap tych utworów!

O tej piosence: Ain't No Sunchine

Brak informacji o tej piosence.

Wykonałeś cover Ain't No Sunchine na swoim ukulele? Podziel się swoją pracą!
Dodaj przeróbkę