I Am The Highway taby ukulele według Audioslave

6 Chwyty użyte w piosence: F, C, G, Am, Dm, E

9.5/10
WydrukujDodaj tab do śpiewnika

Tablature / Chords (Cały utwór)

Font size: A- A A+

Artysta: 
Album: 
Rok:  2002
Trudność: 
3.83
(zaawansowany)
Akord: AmChwyty i tabulatura
F F,        C C,        G G,      Am Am,      
Pearls And swine bereft of me
F F, C C, G G, Am Am,
long and weary my road has been
F F, C C Am Am
i was lost in the cities
G G, C C Am Am,
alone in the hills
F F, C C Am Am, G G, C C Am Am,
no sorrow or pity for leaving i feel

C C G G, Dm Dm,
i am not your rolling wheels
Am Am,
i am the highway
C C, G G, Dm Dm,
i am not your carpet ride
E E slide
i am the sky

F F, C C,
friends and liars
G G, Am Am,
don't wait for me
F F, C C,
cause i'll get on
G G, Am Am,
all by myself
F F, C C Am Am,
I put millions of miles
G G, Am Am C C,
under my heels
F F, C C Am Am, G G, Am Am C C,
and still too close to you i feel

C C, G G, Dm Dm,
i am not your rolling wheels
Am Am,
i am the highway
C C, G G, Dm Dm,
i am not your carpet ride
Am Am,
i am the sky
C C, G G, Dm Dm
i am not your blowing wind
Am Am
i am the lightining
C C, G G, Dm Dm
i am not your autumn moon

E E 2X
i am the ni.............ght

E E 2x
the ni.............ght

G G Am Am
a||--------------------|-<12>----------------<12>-|
e||----3---3---3--5----|-----<12>------<12>-------|
c||--4---4---4---------|----------<12>------------|
g||--------------------|--------------------------|



C C F F
a||--12-12-15-12-10-7|---10-10-7------------|
e||--------------------|-----------10-8-10--|
c||--------------------|--------------------|
g||--------------------|--------------------|

G G Am Am
a||--12-12-15-12-10-7-7|-10-10-12-12----------|
e||----------------------|-------------10-10--|
c||----------------------|--------------------|
g||----------------------|--------------------|

C C F F
a||-----------------------|----------------|
e||-12-12-10-10-9-9-7-7-|10-10-9-9-7-7-5-5-|
c||-----------------------|----------------|
g||-----------------------|----------------|

C C F F
a||---------------------|---------------|
e||-8-8-7-7-5-5-3-3----|--3s5-5-5-5-----|
c||---------------------|---------------|
g||---------------------|---------------|

⇢ Nie podoba Ci się ta tablatura? Wyświetl 2 innych wersji

taby ukulele według , 19 wrz 2009

Komentarze do tabów (5)

Chcesz coś powiedzieć?
Podziel się swoimi wzorami strummingowymi, akordami lub wskazówkami jak grać ten tabulator!
Filtruj według:
JakeRaven avatar
thanks for this. I personally like D instead of Dm, and E7 instead of E. Otherwise awesome
08 Apr 2021
Korekta
handoverback avatar
strum pattern?
26 Jul 2011
Pytanie
irvingjohn avatar
flag for US(ISO2) (Ogden)
Sucks that it ruined the solo when the site was reformatted.
22 Oct 2010
Komentarz
irvingjohn avatar
flag for US(ISO2) (Ogden)
For some reason it only posted part of the solo. WTF?
24 Sep 2009
Pytanie
UkuleleHill avatar
Followed along nicely, nice job!
20 Sep 2009
Komentarz

O tej piosence: I Am The Highway

Brak informacji o tej piosence.

Wykonałeś cover I Am The Highway na swoim ukulele? Podziel się swoją pracą!
Dodaj przeróbkę