Old Mcdonald Had A Farm Tab de uke por Nursery Rhyme

Ukulele Tab sem cifras.

9.8/10
ImprimirAdicionar tab ao seu Livro de Música

Tablature / Chords (Música Inteira)

Font size: A- A A+

Artista: 
Álbum:  desconhecido
Tom: desconhecidoTablatura (sem cifras)
A---5-5-5-0-2-2-0-----9-9-7-7-5-------
E-------------------------------------
C-------------------------------------
G-------------------------------------

A---0-5-5-5-0-2-2-0---9-9-7-7-5-------
E-------------------------------------
C-------------------------------------
G-------------------------------------

A---0-0-5-5-5---0-0-5-5-5-------------
E-------------------------------------
C-------------------------------------
G-------------------------------------

A---5-5-5-5-----5-5-5-5-5-5-----------
E-------------------------------------
C-------------------------------------
G-------------------------------------

A---0-5-5-5-0-2-2-0-----9-9-7-7-5-----
E-------------------------------------
C-------------------------------------
G-------------------------------------

Tab de uke por , 26 Dez 2012

Comentários da tab (0)

Nenhum comentário ainda :(
Precisa de ajuda, tem uma dica para compartilhar ou simplesmente quer falar sobre essa música? Inicie a discussão!

Tem algo para dizer?
Compartilhe seus Padrões de batida, acordes ou dicas para tocar esta aba!

Top Tablaturas e Cifras por Nursery Rhyme, não perca estas músicas!

Sobre esta música: Old Mcdonald Had A Farm

Nenhuma informação sobre esta música.

Você cobriu Old Mcdonald Had A Farm em seu Ukulele? Compartilhe seu trabalho!
Enviar um cover