Je L'aime à Mourir taby ukulele według Francis Cabrel

6 Chwyty użyte w piosence: C, Em, Am, Dm, F, G

9/10
WydrukujDodaj tab do śpiewnika

Tablature / Chords (Cały utwór)

Font size: A- A A+

Artysta: 
Album: 
Rok:  2016
Trudność: 
3.17
(poczatkujacy)
Akord: C, AmChwyty i tabulatura
# TABS #
# The tabs are only my arrangement. It is quite close to the original version.
# This is my very first attempt to transcript arpeggios into tabs. I am truly sorry for any format mistake you may encounter. Please feel free to notify any error so I can fix them.

# See chords below.

# Intro

C C Em Em C C Em Em

|-3---3-------3-----2---2-------2-----3---3-------3-----2---2-------2----|
|-0-------0-------0-3-----3-------3---0-------0-------0-3-----3-------3--|
|-0-0-------0-------4-4-------4-------0-0-------0-------4-4-------4------|
|-0-----0-------0---0-------0-------0-0-----0-------0---0-------0-------0|

# Verses

C C Em Em

|-3----3-------3-------3-------3------2---2-------2-------2-------2------|
|-0--------0-------0-------0-------0--3-----3-------3-------3-------3----|
|-0--0-------0-------0-------0--------4-4-------4-------4-------4--------|
|-0------0-------0-------0-------0----0-------0-------0-------0-------0--|


Am Am Dm Dm

|-0----0-------0-------0-------0------0---0-------0-------0-------0------|
|-0--------0-------0-------0-------0--1-----1-------1-------1-------1----|
|-0--0-------0-------0-------0--------2-2-------2-------2-------2--------|
|-2------2-------2-------2-------2----2-------2-------2-------2-------2--|


F F G G C C Em Em

|-0---0-------0-----2---2-------2-----3---3-------3-----2---2-------2----|
|-1-------1-------1-3-----3-------3---0-------0-------0-3-----3-------3--|
|-0-0-------0-------2-2-------2-------0-0-------0-------4-4-------4------|
|-2-----2-------2---0-------0-------0-0-----0-------0---0-------0-------0|


Am Am
|-0----0-------0-------0-------0------|
|-0--------0-------0-------0-------0--|
|-0--0-------0-------0-------0--------|
|-2------2-------2-------2-------2----|


C C Em Em

|-3----3-------3-------3-------3------2---2-------2-------2-------2------|
|-0--------0-------0-------0-------0--3-----3-------3-------3-------3----|
|-0--0-------0-------0-------0--------4-4-------4-------4-------4--------|
|-0------0-------0-------0-------0----0-------0-------0-------0-------0--|


Am Am Dm Dm

|-0----0-------0-------0-------0------0---0-------0-------0-------0------|
|-0--------0-------0-------0-------0--1-----1-------1-------1-------1----|
|-0--0-------0-------0-------0--------2-2-------2-------2-------2--------|
|-2------2-------2-------2-------2----2-------2-------2-------2-------2--|


F F G G C C Em Em

|-0---0-------0-----2---2-------2-----3---3-------3-----2---2-------2----|
|-1-------1-------1-3-----3-------3---0-------0-------0-3-----3-------3--|
|-0-0-------0-------2-2-------2-------0-0-------0-------4-4-------4------|
|-2-----2-------2---0-------0-------0-0-----0-------0---0-------0-------0|


Am Am
|-0----0-------0-------0-------0------|
|-0--------0-------0-------0-------0--|
|-0--0-------0-------0-------0--------|
|-2------2-------2-------2-------2----|


# Chorus

Em Em Am Am G G C C

|-2---2-------2-----0---0-------0-----2---2-------2-----3---3-------3----|
|-3-------3-------3-0-----0-------0---3-------3-------3-0-----0-------0--|
|-4-4-------4-------0-0-------0-------2-2-------2-------0-0-------0------|
|-O-----0-------0---2-------2-------2-0-----0-------0---0-------0-------0|


Em Em Am Am F F C C

|-2---2-------2-----0---0-------0-----0---0-------0-----3---3-------3----|
|-3-------3-------3-0-----0-------0---1-------1-------1-0-----0-------0--|
|-4-4-------4-------0-0-------0-------0-0-------0-------0-0-------0------|
|-O-----0-------0---2-------2-------2-2-----2-------2---0-------0-------0|

# Structure : Intro - Verse - Chorus - Verse - Chorus - Verse

# CHORDS #

# Intro

C C Em Em C C Em Em

# First Verse

C C
Moi je n étais rien mais voila qu'aujourd'hui
Em Em
Je suis le gardien du sommeil de ses nuits
Am Am
Je l'aime à mourir
Dm Dm
Vous pouvez détruire tout ce qui vous plaira
F F G G
Elle n'a qu'à ouvrir l'espace de ses bras
C C Em Em
Pour tout reconstruire, pour tout reconstruire
Am Am
Je l'aime à mourir

Elle a gommé les chiffres des horloges du quartier
Elle a fait de ma vie des cocottes en papiers
Des éclats de rire
Elle a bâti des ponts entre nous et le ciel
Et nous les traversons a chaque fois qu'elle ne veut pas dormir
Ne veut pas dormir, ne veut pas dormir
Je l'aime à mourir.

# Chorus

Em Em Am Am G G C C
Elle a dû faire toutes les guerres pour être si forte aujourd'hui
Em Em Am Am F F C C
Elle a dû faire toutes les guerres de la vie et l'amour aussi


# Second Verse

C C
Elle vit de son mieux son rêve d'opaline,
Em Em
Elle danse au milieu des forets qu'elle dessine
Am Am
Je l'aime à mourir.
Dm Dm
Elle porte des rubans qu'elle laisse s'envoler
F F G G
Elle chante souvent que j'ai tort d'essayer
C C Em Em
De les retenir, de les retenir
Am Am
Je l'aime à mourir

Pour monter dans sa grotte cachée sous les toits
Je dois clouer des notes a mes sabot de bois
Je l'aime à mourir
Je dois juste m'asseoir, je ne dois pas parler
Je ne dois rien vouloir, je dois juste essayer
De lui appartenir, de lui appartenir
Je l'aime à mourir

# Chorus

Em Em Am Am G G C C
Elle a dû faire toutes les guerres pour être si forte aujourd'hui
Em Em Am Am F F C C
Elle a dû faire toutes les guerres de la vie et l'amour aussi


# First Verse

C C
Moi je n étais rien mais voila qu'aujourd'hui
Em Em
Je suis le gardien du sommeil de ses nuits
Am Am
Je l'aime à mourir
Dm Dm
Vous pouvez détruire tout ce qui vous plaira
F F G G
Elle n'a qu'à ouvrir l'espace de ses bras
C C Em Em
Pour tout reconstruire, pour tout reconstruire
Am Am
Je l'aime à mourir

⇢ Nie podoba Ci się ta tablatura? Wyświetl 2 innych wersji

taby ukulele według ,

Komentarze do tabów (0)

Nie ma jeszcze żadnych komentarzy :(
Potrzebujesz pomocy, masz wskazówkę którą chcesz się podzielić, czy chcesz po prostu porozmawiać o tej piosence? Rozpocznij dyskusje

Chcesz coś powiedzieć?
Podziel się swoimi wzorami strummingowymi, akordami lub wskazówkami jak grać ten tabulator!

Top Taby i chwyty Francis Cabrel, nie przegap tych utworów!

O tej piosence: Je L'aime à Mourir

Brak informacji o tej piosence.

Wykonałeś cover Je L'aime à Mourir na swoim ukulele? Podziel się swoją pracą!
Dodaj przeróbkę