Pokemon Gen 2 "lucky Channel/game Corner" Uke tab by Junichi Masuda

Ukulele Tab without chords.

PrintAdd tab to your SongBook
Tablature / ChordsFont size: A- A A+

Don't know how to read a tab or a chord ? Check out these uke lessons:

Detailed guide to strumming and picking
How to read uke tabs
Reading chord diagrams

Pokemon Gold/Silver/Crystal: Lucky Channel/Game Corner Theme       

[Intro]
A|------------------------0-----0------
E|------------------------1-----1------
C|-0----3-3---3-3---3-3-----3-0--------
G|------0---0-----0-0---0--------------

A|-------------------------1---0-----0-
E|-------------------------1---1-----1-
C|-0----3-3---3-3---3-3------------3---
G|------0---0-----0-0---0----------0---

A|------------------------0-----0------
E|------------------------1-----1------
C|-0----3-3---3-3---3-3-----3-0--------
G|------0---0-----0-0---0--------------

A|-------------------------1---0---1-3-
E|-------------------------1-----------
C|-0----3-3---3-3---3-3--------0---3-5-
G|------0---0-----0-0---0--------------

[Melody 1]
A|----5-----1-------------0-----0-----
E|----6-------------------1-----1-----
C|--0-----0---3-0---3---0---2-0-3-----
G|------0---0-----0-0-----------------

A|-----------------6---5---3---5-------
E|--1--------1---1-6---6---4---6-------
C|------3------3-------7-------6-5-----
G|------1------1-----------------------

A|----5-----1-------------0-----0-----
E|----6-------------------1-----1-----
C|--0-----0---3-0---3---0---2-0-3-----
G|------0---0-----0-0-----------------

A|------3-----3-----1---1---1-3-------
E|------4-4---4-4---------------------
C|--0-5-----5-----5-3---2---0-2-0-----
G|------------------------------------

A|----5-----1-------------0-----0-----
E|----6-------------------1-----1-----
C|--0-----0---3-0---3---0---2-0-3-----
G|------0---0-----0-0-----------------

A|-----------------6---5---3---5-------
E|--1--------1---1-6---6---4---6-------
C|------3------3-------7-------6-5-----
G|------1------1-----------------------

A|----5-----1-------------0-----0------
E|----6-------------------1-----1------
C|--0-----0---3-0---3---0---2-0-3------
G|------0---0-----0-0------------------

A|-----------------------1-3-----------
E|----1----1---1-----------------------
C|--0---0----0---3---2---3-5-----------
G|------1-1--1---1---0-----------------

[Intro]
A|------------------------0-----0------
E|------------------------1-----1------
C|-0----3-3---3-3---3-3-----3-0--------
G|------0---0-----0-0---0--------------

A|-------------------------1---0-----0-
E|-------------------------1---1-----1-
C|-0----3-3---3-3---3-3------------3---
G|------0---0-----0-0---0----------0---

A|------------------------0-----0------
E|------------------------1-----1------
C|-0----3-3---3-3---3-3-----3-0--------
G|------0---0-----0-0---0--------------

A|-------------------------1---0---1-3-
E|-------------------------1-----------
C|-0----3-3---3-3---3-3--------0---3-5-
G|------0---0-----0-0---0--------------

[Melody 2]
A|----5-----1-------------0-----0------
E|----6-------------------1-----1------
C|--0-----0---3-0---3---0---2-0-3------
G|------0---0-----0-0------------------

A|-----------------6---5---3---5-------
E|--1--------1---1-6---6---4---6-------
C|------3------3-------7-------6-5-----
G|------1------1-----------------------

A|----5-----1-------------0-----0------
E|----6-------------------1-----1------
C|--0-----0---3-0---3---0---2-0-3------
G|------0---0-----0-0------------------

A|------3-----3-----1---1---1-3-------
E|------4-4---4-4---------------------
C|--0-5-----5-----5-3---2---0-2-0-----
G|------------------------------------

A|----5-----1-------------0-----0-----
E|----6-------------------1-----1-----
C|--0-----0---3-0---3---0---2-0-3-----
G|------0---0-----0-0-----------------

A|-----------------6---5---3---5-------
E|--1--------1---1-6---6---4---6-----1-
C|------3------3-------7-------6-5-----
G|------1------1-----------------------

A|----5-----1-------------0-----0------
E|----6-------------------1-----1------
C|--0-----0---3-0---3---0---2-0-3------
G|------0---0-----0-0------------------

A|-------------------------------------
E|----1-----1-------------1------------
C|--0---3-----3---0--------------------
G|------1-----1-------0----------------

[Bridge]
FMadd9 FMadd9 G G
A|------0-----------2------------------
E|----1-1---1-------3-------1----------
C|--3---0-------0---2---3--------------
G|------0-----------0------------------
Csus2 Csus2 F F F7 F7
A|--3-------1---0---3------------------
E|--3-----------1---1------------------
C|--2---0-------0---3------------------
G|--0-----------2---2------------------
F9 F9 G7 G7 G G
A|------0-----------2-----------2------
E|----1-1---1-------1---1-----1-3------
C|--3---3-------0---2-------3---2------
G|------0-----------0-----------0------

A|---------1---1---------10-----------
E|------------------------------------
C|------------------------------------
G|--0-0-0-----------------------------

 

Tab comments (0)
No comment yet :(
Need help, a tip to share, or simply want to talk about this song? Start the discussion!

You must be logged in to join the discussion
or Register

 

About this song

No information about this song.