Bad Little Boy/bad Little Girl Uke tab by Adventure Time With Finn and Jake

1 Chords used in the song :

Add tab to your SongBook

View these chords for the Baritone

Transpose chords:
Tablature / ChordsFont size: A- A A+

Don't know how to read a tab or a chord ? Check out these uke lessons:

How to read uke tabs
Reading chord diagrams


A|--------3-3-------3-3-----------------------|
E|---0----------0---------------------------|
C|-0----------0-----------------------------|
G|-----0----------0-------------------------|



A|--------2-2-------------------------------|
E|---1-------------------------------------|
C|-2---------------------------------------|
G|-----0-----------------------------------|

# strum G7 chordG7

 

Tab comments (0)
No comment yet :(
Need help, a tip to share, or simply want to talk about this song? Start the discussion!

You must be logged in to join the discussion
or Register

 

About this song

No information about this song.

0.257 sec, 5 Q