Looking for...

  1. 3 years ago

    Hello, I am a french Uke beginner. I am looking for the tab for Broken Back's song "Halcyon Birds".
    If anyone has this, please let me know !
    Thanks
    Elise

  2. ukulelebuzz guides choose the best ukulele for beginners

  3. 2 years ago

    You can find it in Pawnbat . You can just look through all shops you see. Maybe it'll help you.

  4. Allo.. j'ai fait ce que j'ai pu . Juste à 'copier/coller " dans un fichier ' word ' et tout devrait être normalement en place comparativement à ce que tu vois.

    Broken Back's song "Halcyon Birds".

    A|--0--------3----3----|----------2----2----|----------3----3----|------------3--------|
    E|-----------0----0----|--3-------3----3----|----------0----0----|------------0--------|
    C|---------------------|--------------------|--0-----------------|--0------------------|
    G|--------2------------|-------0------------|-------0------------|-------0-------------|
    H H H H
    A|--0--------3----3----|----------2----2----|----------3----3----|------------3--------|
    E|--0-3------0----0----|--0-3-----0----0----|--0-3-----0----0----|--0-3-------0--------|
    C|---------------------|--7-----------------|--0-----------------|--0------------------|
    G|--------2------------|-------0------------|-------0------------|-------0-------------|
    s s s s
    A|----------------------------|-------------------------------|
    E|--0----0--0-3--3--3-5--3----|--0----0--0-3--3--3-5----------|
    C|----------------------------|-------------------------------|
    G|----------------------------|-------------------------------|

    -------------------------------------------------------------------------------------------------------------------------------------------------------

    Halcyon Birds - Broken Back

    Once we sailed across the seas
    Yet some doubts tainted winds blew
    Once our tale you believed in
    Yet these doubts have drowned your soul

    Man plans and god laughs
    This is what I've learnt from you
    Once we stood just like two halves
    Yet these doubts have drowned your soul

    I wonder will we be
    Up to the legend once we heard
    I wonder if we will see
    Each other flying as two halcyon birds

    For a while, I thought you were lost
    In the depths where lovers meet
    One last smile and fingers crossed
    Is how you left the lovers seat

    I wonder will we be
    Up to the legend once we heard
    I wonder if we will see
    Each other flying as two halcyon birds

  5. Edited 2 years ago by ukers

    bon je recommence.. voila un fichier que j'ai pu faire avec tout mon possible. ;) bon ukulele

or Sign Up to reply!