Adeste Fideles/oh Come All Ye Faithful Tab por Misc Christmas

tablatura Ukulele sin acordes.

Añadir esta tab a su SongBook
Tablature / ChordsFont size: A- A A+

¿ No sabe cómo leer una tablatura o un acorde ?

curso de ukulele

A|----------0---2-0-2-3-2-0---------------0-2-----------|
E|-3-3--3-----------3-0-3-1-3-3---1-0-1-0-1-3-0-1-0-----|
C|----2-2-2---2-2-2---------2-2-1-2-0-2---------2-2-1-2-|
G|--------------------------------------0-----0---------|


A|-5---0-2-0---2-0-2-----2----4-----------0-----2-2-0-2-3-2---0-5-3-2-----------|
E|-3-0-1-3-3-1-3-----0-----1--0---3-3-1-3---3---3-3-1-3-0---0-1-3-1-3-5-0-0---0-|
C|---------------2-2---2-1-2----2-2-2-------2-2-----------2-----------3---5-3---|
G|-------------------0--------------------------------------------------0-----0-|


A|-3-2-0----------------------------------|
E|---3-3-1-3-3----------------------------|
C|----------------------------------------|
G|----------------------------------------|

 

Comentarios (0)
Ningún comentario :(
¿Necesitas ayuda, un consejo para compartir o simplemente quieres hablar sobre esta canción? Comience la discusión

Debes iniciar sesión para unirte a la discusión
o Registrarse

 

Acerca de esta canción

No hay información por esta canción.