Theme Song Tabulatur von Westworld

Ukulele Tabs ohne Akkorde.

Tab ins SongBook hinzufügen
Tablature / ChordsFont size: A- A A+

Sie wissen nicht wie man einen Tab oder Akkorde liest ?
Schauen Sie sich diesen uke Unterricht an:

Ukulelen-Unterricht

A|-----0------|-----8------|
E|------------|-----1------|
C|------------|------------|
G|-----2------|------------|

A|-0-----0-----0-----0-----|-------------------------|
E|---0-----0-----0---0-0---|---0-----0-----0-----0---|
C|-------------2-----------|-5---0-5---0-5---0-5---0-|
G|-2---2-5---2-----2-----2-|-2-----2-----2-----2-----|

A|-0-----0-----0-----0-----|-------------------------|
E|---0---0-0-----0-----0---|---0-----0-----0-----0---|
C|-------------2-----------|-5---0-5---0-5---0-5---0-|
G|-2---2-----2-----2-5---2-|-2-----2-----2-----2-----|

A|-0-----0-----0-----0-----|-----2-----2-----2-----2-|
E|---0-----0-----0---0-0---|---0-----0-----0-----0---|
C|-------------2-----------|-4-----4-----4-----4-----|
G|-2---2-5---2-----2-----2-|-0-----0-----0-----0-----|

A|-1-----1-----1-----1-----|-0-----0-----0-----0-----|
E|---1---1-1---0-1-----1---|-0-0-----0-----0-----0---|
C|-------------------2-----|-----0-----0-----0-----0-|
G|-3---3-----3-----3-----3-|-2-----2-----2-----2-----|

A|---------------5-3-------|-5---5-----5-----5-----5-|
E|-0-1-1-0-1-1-0-------1---|-------------------------|
C|-5-----5-----5-----5-----|-2-----2-----2-----2-----|
G|-----------------------2-|---2-----2-----2-----2---|

A|-5-----5-----5-3---------|-0-----0-----0-----0-----|
E|-3---0-3---0-3-----3-----|---0-----0-----0-----0---|
C|---2-----2-----------2---|-----0-----0-----0-----0-|
G|-0---------------0-----0-|-2-----2-----2-----2-----|

A|-5-----5-----5---5-----5-|-------3-------3-------3-------3-|
E|-1---3-1---3-1-0---------|-0-0-------0-------0-------0-----|
C|-2-----2-----2-----2-----|-0-------0-------0-------0-------|
G|---2-----2-----------2---|-----0-------0-------0-------0---|

A|-1-----3--5-0--------3---|-------------------------|
E|---0----------0----------|-4---4------3------------|
C|-------------------------|---2----------2----------|
G|-----3----------2--3-----|-------3--5-----0--2--3--|

A|-0-----------0-----------|-0-----------0-----------|
E|---0--1--------0--1------|---0--1--------0--1------|
C|-------------------------|-------------------------|
G|--------1--2--------1--2-|--------1--2--------1--2-|
A|---3-8--------3-8--------|---3-8--------3-8--------|
E|-1----------1------------|-1----------1------------|
C|-------------------------|-------------------------|
G|-------1--2-------1--2---|-------1--2-------1--2---|

A|-0-----------0-----------|-0-----------0-----------|
E|---0--1--------0--1------|---0--1--------0--1------|
C|-------------------------|-------------------------|
G|--------1--2--------1--2-|--------1--2--------1--2-|

A|-5-------------5--3-----3-|----------------3----------|
E|-0---1-0---1-0------------|---0-0---0-0-----------0---|
C|-2-----2-----2------2-----|-0-----0-----0-------0-----|
G|---2-----2------------2---|-7-----7-----7----0------0-|

A|-5-----5-----5-------------|-1---------1--0------------|
E|---0-0---0-0---0--3----0-1-|-0-0---0--------0---0----0-|
C|-4-----4-----4-------4-----|---------------------------|
G|---------------------------|-----2---2--------2----2---|

A|-----------------------7-0-----|-8------8------8----7-----7-|
E|-0--1-1--0--1-1--0--1--5---5---|-8----1-----------5---------|
C|-5-------5-------5-------------|-2------2------2------2-----|
G|-----------------------5-----5-|-5--5---4--5-5-4--------5---|

A|-1-----3--5------0---------3---------------------------|--0--|
E|---0---------------0----------4---4-------3------------|-----|
C|--------------------------------2-----------2----------|-----|
G|-----3---------------2--3-----------3--5------0--2--3--|--2--|

 

Tab Kommentare (1)
Sie müssen angemeldet sein, um an der Diskussion teilnehmen zu können
oder Beitreten

 

robinboyd avatar
flag for AU(ISO2) (Kingston)
I would really love to hear you play this because I can't seem to work out how it is supposed to sound. It doesn't sound anything like the Westworld intro to when I play it, but I could just be playing it wrong. Or in other words "it doesn't look like anything to me" ;)
28 Apr 2018
Über dieses Lied

Keine Informationen über dieses Lied.