What Shall We Do With A Drunken Sailor? Tabulatur von Themes

Ukulele Tabs ohne Akkorde.

9.3/10
druckenTab ins SongBook hinzufügen

Tablature / Chords (Ganzer Song)

Font size: A- A A+

Künstler: 
Album:  unbekannt
Key: unbekanntTabulaturen (ohne Akkorde)
Main:

A|-0---0--0--0---0--0--|-0-----------0---|
E|---------------------|---------1-------|
C|---------------------|-----2-----------|
G|---------------------|-----------------|


|---------------------|-----------------|
|---------------------|---------0-------|
|---------------------|-----0-----------|
|-0---0--0--0---0--0--|-0-----------0---|


|-0---0--0--0---0--0--|-0---2---3---5---|
|---------------------|-----------------|
|---------------------|-----------------|
|---------------------|-----------------|


|-3---0-----------|-----------|
|-------------0---|-----------|
|-----------------|-2----2----|
|---------0-------|-----------|

Chorus:

|-0----0----0--|-0-----------0---|
|--------------|---------1-------|
|--------------|-----2-----------|
|--------------|-----------------|


|--------------|-----------------|
|--------------|---------0-------|
|--------------|-----0-----------|
|-0----0----0--|-0-----------0---|


|-0----0----0--|-0---2---3---5---|
|--------------|-----------------|
|--------------|-----------------|
|--------------|-----------------|


|-5---0-----------|-----------|
|-------------0---|-----------|
|-----------------|-2----2----|
|---------0-------|-----------|

Tabulatur von , 04 Feb 2013

Tab Kommentare (0)

Noch kein Kommentar vorhanden :(
Brauchen Sie Hilfe, haben Sie einen Tipp zu teilen, oder wollen einfach nur über dieses Lied sprechen? Starte die Diskussion!

Kommentieren
Teilen Sie Ihre Strumming-Muster, Akkorde oder Tipps zum Spielen dieser Registerkarte mit!

Über dieses Lied: What Shall We Do With A Drunken Sailor?

Keine Informationen über dieses Lied.

Haben Sie What Shall We Do With A Drunken Sailor? auf Ihrer Ukulele gecovert? Teilen Sie Ihr Werk!
Cover abgeben