Favorite Liar Tabulatur von The Wrecks

Ukulele Tabs ohne Akkorde.

druckenTab ins SongBook hinzufügen
Tablature / ChordsFont size: A- A A+

Sie wissen nicht wie man einen Tab oder Akkorde liest ?
Schauen Sie sich diesen uke Unterricht an:

Ukulelen-Unterricht

A|--0-----------7-----|
E|----5---5-2-5---5---|
C|--------------------|
G|------6-------------|
H
A|----------2-7---7----|
E|----5---5-----0------|
C|--2------------------|
G|------6-----------6--|

A|--0-----------7-----|
E|----5---5-2-5---5---|
C|--------------------|
G|------6-------------|

A|--0---------7-------|
E|----5---5---5-------|
C|--------------------|
G|------6-----6-------|

A|--0-----------7-----|
E|----5---5-2-5---5---|
C|--------------------|
G|------6-------------|
H
A|----------2-7---7----|
E|----5---5-----0------|
C|--2------------------|
G|------6-----------6--|

A|--0-----------7-----|
E|----5---5-2-5---5---|
C|--------------------|
G|------6-------------|

A|------------7-------------7-------------|
E|----------------------------------------|
C|----------------------------------------| G|--6-4-6-4-6---6-6-4-6-4-6---6--4-6-6-4--|
~
A|---------------------------------------------|
E|--5--2----5--2----5--2----2-5----------------|
C|-------4-------4-------4---------------------| G|-------------------------------4------6--4---|

A|---------------------------------------|
E|-----5-----------5------5-------5------|
C|---------------------------6--4----6---| G|--4-----4--6--4-----4------------------|
~
A|--------7---------------------|
E|----------2-----------2---0---|
C|------------------------------|
G|--6-6-6-----6-6-6-4-2---------|

A|--0-----------7-----|
E|----5---5-2-5---5---|
C|--------------------|
G|------6-------------|

A|--0-----------7-----|
E|----5---5-2-5---5---|
C|--------------------|
G|------6-------------|
H
A|----------2-7---7----|
E|----5---5-----0------|
C|--2------------------|
G|------6-----------6--|

A|--0-----------7-----|
E|----5---5-2-5---5---|
C|--------------------|
G|------6-------------|

A|------------7-------------7-------------|
E|----------------------------------------|
C|----------------------------------------| G|--6-4-6-4-6---6-6-4-6-4-6---6--4-6-6-4--|
~
A|---------------------------------------------|
E|--5--2----5--2----5--2----2-5----------------|
C|-------4-------4-------4---------------------| G|-------------------------------4------6--4---|

A|---------------------------------------|
E|-----5-----------5------5-------5------|
C|---------------------------6--4----6---| G|--4-----4--6--4-----4------------------|
~
A|--------7---------------------|
E|----------2-----------2---0---|
C|------------------------------|
G|--6-6-6-----6-6-6-4-2---------|

A|----------------|
E|--5--2-------5--|
C|-------4--------|
G|---------6-4----|

A|----------------|
E|--5----5-5------|
C|----------------|
G|----------------|

A|---------------------------------------|
E|-----5-----------5------5-------5------|
C|---------------------------6--4----6---| G|--4-----4--6--4-----4------------------|
~
A|--------7---------------------|
E|----------2-----------2---0---|
C|------------------------------|
G|--6-6-6-----6-6-6-4-2---------|

A|---------------------------------------|
E|-----5-----------5------5-------5------|
C|---------------------------6--4----6---| G|--4-----4--6--4-----4------------------|
~
A|--------7---------------------|
E|----------2-----------2---0---|
C|------------------------------|
G|--6-6-6-----6-6-6-4-2---------|

A|--0-----------7-----|
E|----5---5-2-5---5---|
C|--------------------|
G|------6-------------|
H
A|----------2-7---7---0--|
E|----5---5-----0--------|
C|--2--------------------|
G|------6-----------6----|

 

Tab Kommentare (1)
Sie müssen angemeldet sein, um an der Diskussion teilnehmen zu können
oder Beitreten

 

Emberisk avatar
flag for US(ISO2) (Phoenix)
This tabs shit. The G is on the side so it's almost impossible to fucking read
18 Jun 2018
Über dieses Lied

Keine Informationen über dieses Lied.