You Are Going To Hate This Tabulatur von The Frights

4 Im Lied verwendete Ukulelengriffe: A,F#m,D,E

Tab ins SongBook hinzufügen
Tablature / ChordsFont size: A- A A+

Sie wissen nicht wie man einen Tab oder Akkorde liest ?
Schauen Sie sich diesen uke Unterricht an:

Ukulelen-Unterricht

Intro
A|-9--9-7-9--9-7-9--9-7-9-12--9-7---------------7-5-7-9-|
E|--------------------------------7--7-5-7--7-5---------|
C|------------------------------------------------------|
G|------------------------------------------------------|


[Verse 1]
A A
My head shakes when I sleep too long
F#m F#m
And my mom cries when I sing this song
D D E E A A
Why can't I be like you
A A
You say things that don't make much sense
F#m F#m N.C.
Like the drugs you did or the money you spent
D D E E A A
Why can't I be so cool


[Chorus]
A A F#m F#m D D E E A A
Ooh, ooh, ooh
A A F#m F#m D D E E A A
Ooh, ooh, ooh


Solo x2
A A F#m F#m
A|-4--4-2-4--4-2-4--4-2-4-5-4-2-----------------------|
E|------------------------------5--5-4-5--5-4-5-4-2-0-|
C|----------------------------------------------------|
G|----------------------------------------------------|
D D E E A A
A|------------------------0-----2--2-0-2--2-0-7-5-7-9-7-5-|-7-|
E|-2--2-0-2--2-0-2--2-0-2---2-0---------------------------|---|
C|--------------------------------------------------------|---|
G|--------------------------------------------------------|---|


[Verse 2]
A A
My heart breaks at the drop of a dime
F#m F#m N.C.
And I freak out when I lose my mind
D D E E A A
Why can't I be like you
A A
I need you and I need to %uck
F#m F#m
But I talked to you and you don't say much
D D E E A A
Why can't I keep my cool


[Chorus]


A A F#m F#m D D E E A A
A A F#m F#m D D E E A A


[Verse 3]
A A
Black out and I need to sit
F#m F#m
And I wrote this but it don't mean $h!t
D D E E A A
Why can't I be like you
A A
I miss you and I let you down
F#m F#m N.C.
And your voice is the perfect sound
D D E E A A
Why can't I be so cool


[Chorus]


Ending Chorus
A A F#m F#m
A|-4--4-2-4--4-2-4--4-2-4-5-4-2-----------------------|
E|------------------------------5--5-4-5--5-4-5-4-2-0-|
C|----------------------------------------------------|
G|----------------------------------------------------|
D D E E
A|------------------------0-----2--2-0-2--2-0-7-5-7-9-7-5-|
E|-2--2-0-2--2-0-2--2-0-2---2-0---------------------------|
C|--------------------------------------------------------|
G|--------------------------------------------------------|
A A F#m F#m
A|-4--4-2-4--4-2-4--4-2-4-5-4-2-----------------------|
E|------------------------------5--5-4-5--5-4-5-4-2-0-|
C|----------------------------------------------------|
G|----------------------------------------------------|
D D E E A A
A|------------0-----|
E|-2----4----(0)----|
C|-----------(1)----|
G|-----------(2)----|

 

Tab Kommentare (0)
Noch kein Kommentar vorhanden :(
Brauchen Sie Hilfe, haben Sie einen Tipp zu teilen, oder wollen einfach nur über dieses Lied sprechen? Starte die Diskussion!

Sie müssen angemeldet sein, um an der Diskussion teilnehmen zu können
oder Beitreten

 

Über dieses Lied

Keine Informationen über dieses Lied.