Julia Tabulatur von The Beatles

Ukulele Tabs ohne Akkorde.

druckenTab ins SongBook hinzufügen
Tablature / ChordsFont size: A- A A+

Sie wissen nicht wie man einen Tab oder Akkorde liest ?
Schauen Sie sich diesen uke Unterricht an:

Ukulelen-Unterricht

Capo 2

C C Am7 Am7
A|--------------------3----------|0-------------------3----------|
E|3-------0-------3-------0------|3-------0---------------0------|
C|0------------------------------|----------------4--------------|
G|------------0------------------|------------2------------------|
Half of what I say is meaningless

Em Em
A|2-------------------2----------|2-------------------2----------|
E|3-------0---------------0------|3-------0---------------0------|
C|----------------4--------------|----------------4--------------|
G|------------0------------------|------------0------------------|

C C Am7 Am7
A|--------------------3----------|0-------------------3----------|
E|3-------0-------3-------0------|3-------0---------------0------|
C|0------------------------------|----------------4--------------|
G|------------0------------------|------------2------------------|
But I say it just to reach you,

Em Em G G
A|2-------------------2----------|2-------------------5----------|
E|3-------0---------------0------|3---------------3--------------|
C|----------------4--------------|--------2---------------2------|
G|------------0------------------|------------0------------------|
Julia.

C C Am7 Am7
A|--------------------3----------|0-------------------3----------|
E|3-------0-------3-------0------|3-------0---------------0------|
C|0------------------------------|----------------4--------------|
G|------------2------------------|------------2------------------|
Julia

Gm7 Gm7 Gm9 Gm9
A|--------------------5----------|--------------------5----------|
E|3-------1-------3-------1------|5-------1-------3-------1------|
C|2------------------------------|2------------------------------|
G|------------3------------------|------------3------------------|
Julia

A A
A|--------------------7----------|--------------------7----------|
E|5-------3-------5-------3------|5--------3------5-------3------|
C|4------------------------------|4------------------------------|
G|------------6------------------|------------6------------------|
Ocean child

F9 F9 Fm7 Fm7
A|--------------------3----------|--------------------3----------|
E|3------------------------------|4------------------------------|
C|0-------3-------5-------3------|0-------3-------5-------3------|
G|------------2------------------|------------1------------------|
Calls me


C C Am7 Am7
A|--------------------3----------|0-------------------3----------|
E|3-------0-------3-------0------|3-------0---------------0------|
C|0------------------------------|----------------4--------------|
G|------------0------------------|------------2------------------|
So I sing this song of love,


Em Em G G
A|2-------------------2----------|2-------------------5----------|
E|3-------0---------------0------|3---------------3--------------|
C|----------------4--------------|--------2---------------2------|
G|------------0------------------|------------0------------------|
Julia

Gm7 Gm7 Gm9 Gm9
A|--------------------3----------|0-------------------3----------|
E|3-------0-------3-------0------|3-------0---------------0------|
C|0------------------------------|----------------4--------------|
G|------------2------------------|------------2------------------|
Seashell eyes

A A
A|--------------------5----------|--------------------5----------|
E|3-------1-------3-------1------|5-------1-------3-------1------|
C|2------------------------------|2------------------------------|
G|------------3------------------|------------3------------------|
Windy smile

F9 F9 Fm7 Fm7
A|--------------------7----------|--------------------7----------|
E|5-------3-------5-------3------|5--------3------5-------3------|
C|4------------------------------|4------------------------------|
G|------------6------------------|------------6------------------|
Seashell eyes

A A
A|--------------------3----------|--------------------3----------|
E|3------------------------------|4------------------------------|
C|0-------3-------5-------3------|0-------3-------5-------3------|
G|------------2------------------|------------1------------------|
Calls me


C C Am7 Am7
A|--------------------3----------|0-------------------3----------|
E|3-------0-------3-------0------|3-------0---------------0------|
C|0------------------------------|----------------4--------------|
G|------------0------------------|------------2------------------|
So I sing this song of love,


Em Em G G
A|2-------------------2----------|2-------------------5----------|
E|3-------0---------------0------|3---------------3--------------|
C|----------------4--------------|--------2---------------2------|
G|------------0------------------|------------0------------------|
Julia.

C C
A|--------------------3----------|--------------------3----------|
E|3-------0-------3-------0------|3-------0-------3-------0------|
C|0------------------------------|0------------------------------|
G|------------0------------------|------------0------------------|


Bm Bm
A|2-------------------5----------|2-------------------5----------|
E|2-------2---------------2------|2-------2---------------2------|
C|----------------6--------------|----------------6--------------|
G|------------4------------------|------------4------------------|
Her hair of floating sky is

C C
A|--------------------3----------|--------------------3----------|
E|3-------0-------3-------0------|3-------0-------3-------0------|
C|0------------------------------|0------------------------------|
G|------------0------------------|------------0------------------|
shimmering,

Am7 Am7 Am6 Am6
A|0-------------------3----------|0-------------------3----------|
E|3-------0---------------0------|2-------0---------------0------|
C|----------------4--------------|----------------4--------------|
G|------------2------------------|------------2------------------|
glimmering

Em7 Em7 Em6 Em6
A|2-------------------5----------|2-------------------4----------|
E|--------0---------------0------|--------0---------------0------|
C|2---------------4--------------|----------------4--------------|
G|------------0------------------|6-----------0------------------|
in the sun

Emaug5 Emaug5 Em Em
A|2-------------------3----------|2-------------------2----------|
E|--------0---------------0------|--------0---------------0------|
C|----------------4--------------|----------------4--------------|
G|5-----------0------------------|------------0------------------|

C C Am7 Am7
A|--------------------3----------|0-------------------3----------|
E|3-------0-------3-------0------|3-------0---------------0------|
C|0------------------------------|----------------4--------------|
G|------------2------------------|------------2------------------|
Julia

Gm7 Gm7 Gm9 Gm9
A|--------------------5----------|--------------------5----------|
E|3-------1-------3-------1------|5-------1-------3-------1------|
C|2------------------------------|2------------------------------|
G|------------3------------------|------------3------------------|
Julia

A A
A|--------------------7----------|--------------------7----------|
E|5-------3-------5-------3------|5--------3------5-------3------|
C|4------------------------------|4------------------------------|
G|------------6------------------|------------6------------------|
Morning moon

F9 F9 Fm7 Fm7
A|--------------------3----------|--------------------3----------|
E|3------------------------------|4------------------------------|
C|0-------3-------5-------3------|0-------3-------5-------3------|
G|------------2------------------|------------1------------------|
Touch me


C C Am7 Am7
A|--------------------3----------|0-------------------3----------|
E|3-------0-------3-------0------|3-------0---------------0------|
C|0------------------------------|----------------4--------------|
G|------------0------------------|------------2------------------|
So I sing this song of love,


Em Em G G
A|2-------------------2----------|2-------------------5----------|
E|3-------0---------------0------|3---------------3--------------|
C|----------------4--------------|--------2---------------2------|
G|------------0------------------|------------0------------------|
Julia.

C C
A|--------------------3----------|--------------------3----------|
E|3-------0-------3-------0------|3-------0-------3-------0------|
C|0------------------------------|0------------------------------|
G|------------0------------------|------------0------------------|

Am7 Am7
A|--------------------3----------|0-------------------3----------|
E|3-------0-------3-------0------|3-------0---------------0------|
C|0------------------------------|----------------4--------------|
G|------------0------------------|------------2------------------|
When I cannot sing my heart

Em Em
A|2-------------------2----------|2-------------------2----------|
E|3-------0---------------0------|3-------0---------------0------|
C|----------------4--------------|----------------4--------------|
G|------------0------------------|------------0------------------|

C C Am7 Am7
A|--------------------3----------|0-------------------3----------|
E|3-------0-------3-------0------|3-------0---------------0------|
C|0------------------------------|----------------4--------------|
G|------------0------------------|------------2------------------|
I can only speak my mind


Em Em G G
A|2-------------------2----------|2-------------------5----------|
E|3-------0---------------0------|3---------------3--------------|
C|----------------4--------------|--------2---------------2------|
G|------------0------------------|------------0------------------|
Julia.

C C Am7 Am7
A|--------------------3----------|0-------------------3----------|
E|3-------0-------3-------0------|3-------0---------------0------|
C|0------------------------------|----------------4--------------|
G|------------2------------------|------------2------------------|
Julia

Gm7 Gm7 Gm9 Gm9
A|--------------------5----------|--------------------5----------|
E|3-------1-------3-------1------|5-------1-------3-------1------|
C|2------------------------------|2------------------------------|
G|------------3------------------|------------3------------------|
Sleeping sand

A A
A|--------------------7----------|--------------------7----------|
E|5-------3-------5-------3------|5--------3------5-------3------|
C|4------------------------------|4------------------------------|
G|------------6------------------|------------6------------------|
Silent cloud

F9 F9 Fm7 Fm7
A|--------------------3----------|--------------------3----------|
E|3------------------------------|4------------------------------|
C|0-------3-------5-------3------|0-------3-------5-------3------|
G|------------2------------------|------------1------------------|
Touch me


C C Am7 Am7
A|--------------------3----------|0-------------------3----------|
E|3-------0-------3-------0------|3-------0---------------0------|
C|0------------------------------|----------------4--------------|
G|------------0------------------|------------2------------------|
So I sing a song of love,


Em Em G G
A|2-------------------2----------|2-------------------5----------|
E|3-------0---------------0------|3---------------3--------------|
C|----------------4--------------|--------2---------------2------|
G|------------0------------------|------------0------------------|
Julia.

C C Am7 Am7
A|--------------------3----------|0-------------------3----------|
E|3-------0-------3-------0------|3-------0---------------0------|
C|0------------------------------|----------------4--------------|
G|------------0------------------|------------2------------------|

Gm7 Gm7 Gm9 Gm9
A|--------------------5----------|--------------------5----------|
E|3-------1-------3-------1------|5-------1-------3-------1------|
C|2------------------------------|2------------------------------|
G|------------3------------------|------------3------------------|
HmmmmmmmmmmmmmmmmmmmmmmmHmmmmmmmHmmmmmmmmmmmmmmm

A A
A|--------------------7----------|--------------------7----------|
E|5-------3-------5-------3------|5--------3------5-------3------|
C|4------------------------------|4------------------------------|
G|------------6------------------|------------6------------------|

F9 F9 Fm7 Fm7
A|--------------------3----------|--------------------3----------|
E|3------------------------------|4------------------------------|
C|0-------3-------5-------3------|0-------3-------5-------3------|
G|------------2------------------|------------1------------------|
Calls me


C C Am7 Am7
A|--------------------3----------|0-------------------3----------|
E|3-------0-------3-------0------|3-------0---------------0------|
C|0------------------------------|----------------4--------------|
G|------------0------------------|------------2------------------|
So I sing a song of love, for


Em Em C C
A|2-------------------2----------|--------------------3----------|
E|3-------0---------------0------|3-------0-------3-------0------|
C|----------------4--------------|0------------------------------|
G|------------0------------------|------------0------------------|
Julia.


Em Em C C
A|2-------------------2----------|--------------------3----------|
E|3-------0---------------0------|3-------0-------3-------0------|
C|----------------4--------------|0------------------------------|
G|------------0------------------|------------0------------------|
Julia


Em Em G G
A|2-------------------2----------|2-------------------5----------|
E|3-------0---------------0------|3---------------3--------------|
C|----------------4--------------|--------2---------------2------|
G|------------0------------------|------------0------------------|
Julia

Cmaj7 Cmaj7
A|----2--------------------------|-------------------------------|
E|3-0-----0----------------------|-------------------------------|
C|-0-----------------------------|-------------------------------|
G|---0---------------------------|-------------------------------|

 

Tab Kommentare (0)
Noch kein Kommentar vorhanden :(
Brauchen Sie Hilfe, haben Sie einen Tipp zu teilen, oder wollen einfach nur über dieses Lied sprechen? Starte die Diskussion!

Sie müssen angemeldet sein, um an der Diskussion teilnehmen zu können
oder Beitreten

 

Über dieses Lied

Keine Informationen über dieses Lied.