Here Comes The Sun Tabulatur von The Beatles

6 Im Lied verwendete Ukulelengriffe: G, C, A7, D, A#, F

7.7/10
druckenTab ins SongBook hinzufügen

Tablature / Chords (Ganzer Song)

Font size: A- A A+

Künstler: 
Album: 
Jahr:  1969
Schwierigkeit: 
3.5
(Mittelstufe)
Key: unbekanntAkkorde und Tabulaturen
INTRO

A|-2-02-20-----0-------0-2--02-20----20---|
E|--3--3--3-03--30-2023----3--3--3-0---3-2|
C|----------------------------------------|
G|----------------------------------------|

G G
Here comes the sun
A|-2-02-|
E|--3---|

C C A7 A7
Here comes the sun, and I say
G G
It's all right
A|---2--2--0--0-----|
E|--3--3--3--3-320--|
C|-4--2--0--2-----2-|
G|------------------|

G G C C D D
Little darling, it's been a long cold lonely winter
G G C C D D
Little darling, it feels like years since it's been here

G G
Here comes the sun
A|-2-02-|
E|--3---|

C C A7 A7
Here comes the sun, and I say
G G
It's all right
A-----0---0---0---0--------2-02-----0-|
E----3---3---3---3--320--3--3---2023--|
C-2/4---2---0---2------2--2-----------|
G-------------------------------------|

G G C C D D
Little darling, the smiles returning to the faces
G G C C D D
Little darling, it seems like years since it's been here

G G
Here comes the sun
A|-2-02-|
E|--3---|

C C A7 A7
Here comes the sun, and I say
G G
It's all right
A-----0---0---0---0--------2-02-----0-----------------2---0--|
E----3---3---3---3--320--3--3---2023----1---1---0-----3---2--|
C---4---2---0---2------2--2------------2---0---0---0--2---2--|
G-------------------------------------3---2---0---0---0---2--|

A# A# F F C C G G D D
Sun, sun, sun, here it comes
A# A# F F C C G G D D
Sun, sun, sun, here it comes
A# A# F F C C G G D D
Sun, sun, sun, here it comes
A# A# F F C C G G D D
Sun, sun, sun, here it comes
A# A# F F C C G G D D
Sun, sun, sun, here it comes

A---------------------------3-|
E-2---02--3---2-3--5---3-5--2-|
C-2---22--2---2-2--2---2-2--2-|
G---------------------------2-|

G G C C D D
Little darling, I feel that ice is slowly melting
G G C C D D
Little darling, it seems like years since it's been clear

G G
Here comes the sun
A|-2-02-|
E|--3---|

C C A7 A7
Here comes the sun, and I say
G G
It's all right
A-----0---0---0---0-----|
E----3---3---3---3--320-|
C---4---2---0---2------2|
G-----------------------|

G G
Here comes the sun
A|-2-02-|
E|--3---|

C C A7 A7
Here comes the sun, and I say
G G
It's all right
A-----0---0---0---0-----|
E----3---3---3---3--320-|
C---4---2---0---2------2|
G-----------------------|

G G
It's all right
A-----0---0---0---0--------2-02-----0-----------------2---0--|
E----3---3---3---3--320--3--3---2023----1---1---0-----3---2--|
C---4---2---0---2------2--2------------2---0---0---0--2---2--|
G-------------------------------------3---2---0---0---0---2--|

⇢ Nicht zufrieden mit dieser Tabulatur? 27 andere Version(en) anzeigen

Tabulatur von ,

Tab Kommentare (1)

Kommentieren
Teilen Sie Ihre Strumming-Muster, Akkorde oder Tipps zum Spielen dieser Registerkarte mit!
Filtern nach:
Ted1973 avatar
flag for FR(ISO2) (Calais)
Perfect, thank you
21 Aug 2022
Kommentar

Top Tabs & Akkorde von The Beatles, verpassen Sie diese Songs nicht!

Über dieses Lied: Here Comes The Sun

Keine Informationen über dieses Lied.

Haben Sie Here Comes The Sun auf Ihrer Ukulele gecovert? Teilen Sie Ihr Werk!
Cover abgeben