River Flows In You (Solo) Tabulatur von Sungha Jung

Ukulele Tabs ohne Akkorde.

Tab ins SongBook hinzufügen
Tablature / ChordsFont size: A- A A+

Sie wissen nicht wie man einen Tab oder Akkorde liest ?
Schauen Sie sich diesen uke Unterricht an:

Ukulelen-Unterricht

S                                              
A|-------------------5----|-5----------------5----|
E|--3-5--3--2--3--0-------|-3-5--3--2--3----------|
C|-------------4--------4-|------------0--------0-|
G|-------------------0----|---------------0-------|

A|--5---------------------|-----------------------|
E|--3-5--3--2--3--5-------|--------5---3--2-------|
C|------------------------|---------------2--2--2-|
G|-------------------4--5-|-7---4-----------------|
S S
A|----------------------5----|----5----------------5----|
E|--(3)3-5--3--2--3--0-------|-(3)3-5--3--2--3----------|
C|----------------4--------4-|---------------0--------0-|
G|----------------------0----|------------------0-------|
S S
A|----5----------------------|-----------------------|-------|
E|--(3)3-5--3--2--3--5-------|--------5---3--2-------|--5-2--|
C|---------------------------|---------------2--2----|-------|
G|----------------------4--5-|-7---4-----------------|-------|
S
A|--------2-------5-|---5-----5------5---|-----3--------3-|--5--2----|
E|--2-------0--2--3-|-0----2--3--------3-|---------3------|----------|
C|------------------|------------0-------|-0--------------|--2-----2-|
G|-----0-------0----|------0-------0-----|---0-----3-4----|--0-----2-|
H H H
A|--------------2-|-----------------|----2----2-3--5----2-|
E|--------2-------|-0----------0----|---------0----3------|
C|--2--------4----|---------0-------|------0----------2---|
G|-----0-----0----|----0-2--0-----0-|-2-------0----0----0-|

A|-3--5-----3--2-------3-|-2-------|
E|-------3---------------|-------2-|
C|----------------2--2---|---------|
G|----0-----0-----2------|----2----|
S H
A|--------5-|---5-----5------5---|-----3----------3---5-|-------------------|
E|--0--2--3-|-0----2--3--------3-|-----------3----------|---5---5----5--3--2|
C|----------|------------0-------|-0------2-----------2-|---2--2------------|
G|-----0----|------0-------0-----|---0-------3-4------0-|4--------4---------|
H H H H
A|---------------|------------2----2-3-|-5-----2-3--5-----3--2-|----------|
E|--3--0---------|----0------------0---|-3-------------3-------|----------|
C|--4------------|-0------------0------|----2------------------|-2--2--2--|
G|--------0--0-2-|-0-----0-2-------0---|-0-----0----0-----0----|-2-------2|
S
A|-------------------5----|-5----------------5----|
E|--3-5--3--2--3--0-------|-3-5--3--2--3----------|
C|-------------4--------4-|------------0--------0-|
G|-------------------0----|---------------0-------|

A|--5---------------------|-----------------------|
E|--3-5--3--2--3--5-------|--------5---3--2-------|
C|------------------------|---------------2--2--2-|
G|-------------------4--5-|-7---4-----------------|
S S
A|----------------------5----|----5----------------5----|
E|--(3)3-5--3--2--3--0-------|-(3)3-5--3--2--3----------|
C|----------------4--------4-|---------------0--------0-|
G|----------------------0----|------------------0-------|
S S
A|----5----------------------|-----------------------|-------|
E|--(3)3-5--3--2--3--5-------|--------5---3--2-------|--5-2--|
C|---------------------------|---------------2--2----|-------|
G|----------------------4--5-|-7---4-----------------|-------|

A|-----2----------------|----5----------------|-------2-----------------3--|
E|--0-----3--2--2--0----|-0-----0--0--0--0----|-0--------0--0--0---0-------|
C|--4-----------4-------|-------0-----0-----0-|-------------0-----------2--|
G|--0-----------------0-|-------0-----0-------|----0--4-----0----0---0-----|

A|--2--2--2--------------2----------|-------------2--2--------------2-|
E|-----------------3-----------3----|-------2--0-------3---2--2-------|
C|--------------------2--2--2-----2-|-------------------------2-------|
G|-----------2--2--2-----0----------|----0-----0--------(0)------2----|

A|-----5-----------------------2-|-3--2--0--3--------------------|
E|--0-----0--0--0--------0-------|-------------0-----0--3--2-----|
C|--------0-----------0--------2-|----------------0-----2-----2--|
G|--------0--------0--------0----|-------4-----------------------|
H
A|-------------------5----|-5----------------5----|
E|--3-5--3--2--3--0-------|-3-5--3--2--3----------|
C|-------------4--------4-|------------0--------0-|
G|-------------------0----|---------------0-------|

A|--5--------------------|-----------------------|
E|--3-5--3--2--3--5------|--------5---3--2-------|
C|-----------------------|---------------2--2--2-|
G|-------------------4--5|-7---4-----------------|
S S
A|----------------------5----|----5----------------5----|
E|--(3)3-5--3--2--3--0-------|-(3)3-5--3--2--3----------|
C|----------------4--------4-|---------------0--------0-|
G|----------------------0----|------------------0-------|
S S
A|----5---------------------|--------------------------|-------2-----2-------|
E|--(3)3-5--3--2--3--5------|--------5---3--2-----5--2-|-2--2-----2-----2--3-|
C|--------------------------|---------------2--2-------|----4-----4----------|
G|----------------------4--5|-7---4--------------------|----0----------------|

 

Tab Kommentare (0)
Noch kein Kommentar vorhanden :(
Brauchen Sie Hilfe, haben Sie einen Tipp zu teilen, oder wollen einfach nur über dieses Lied sprechen? Starte die Diskussion!

Sie müssen angemeldet sein, um an der Diskussion teilnehmen zu können
oder Beitreten

 

Über dieses Lied

Keine Informationen über dieses Lied.