Oh, Pretty Woman Tabulatur von Roy Orbison

9 Im Lied verwendete Ukulelengriffe: A,F#m,D,E,E7,Am,G,C,Dm

Tab ins SongBook hinzufügen
Tablature / ChordsFont size: A- A A+

Sie wissen nicht wie man einen Tab oder Akkorde liest ?
Schauen Sie sich diesen uke Unterricht an:

Ukulelen-Unterricht

A---------2-5---------------------------------|
E---0-0-4-------------------------------------| X2
C---------------------------------------------|
G---------------------------------------------|

A---------2-5---------------------------------|
E---0-0-4-----2-0-----------------------------| X4
C-----------------2---------------------------|
G---------------------------------------------|

A A F#m F#m
Pretty woman, walking down the street,
A A F#m F#m D D
pretty woman, the kind I'd like to meet, pretty woman.
E E
I don't believe you, you're not the truth,
E7 E7
no one could look as good as you.

A---------2-5---------------------------------|
E---0-0-4-----2-0-----------------------------| X4
C-----------------2---------------------------|
G---------------------------------------------|

A A F#m F#m
Pretty woman, won't you pardon me,
A A F#m F#m
pretty woman, I couldn't help but see,
D D E E
pretty woman, that you look lovely as can be,
E7 E7
are you lonely just like me.

A---------2-5---------------------------------|
E---0-0-4-----2-0-----------------------------| X3
C-----------------2---------------------------|
G---------------------------------------------|

Am Am G G C C Am Am
Pretty woman, stop a while, pretty woman, talk a while,
Dm Dm G G C C
pretty woman give your smile to me.
Dm Dm G G C C Am Am
Pretty woman, yeah yeah yeah, pretty woman look my way,
Dm Dm G G C C A A
pretty woman say you'll stay with me.

F#m F#m Dm Dm E E
Cause I need you, I'll treat you right.
A A F#m F#m Dm Dm E E
Come to me baby, be mine tonight.

A---------2-5---------------------------------|
E---0-0-4-----2-0-----------------------------| X4
C-----------------2---------------------------|
G---------------------------------------------|

A A F#m F#m
Pretty woman, don't walk on by,
A A F#m F#m
pretty woman, don't make me cry,
D D E E E7 E7
pretty woman, don't walk away, hey.
E E
OK. If that's the way it must be, OK.

I guess I'll go on home, it's late,
there'll be tomorrow night, but wait

What do I see ?

A---------2-5---------------------------------|
E---0-0-4-------------------------------------| X2
C---------------------------------------------|
G---------------------------------------------|

Is she walking back to me,

A---------2-5---------------------------------|
E---0-0-4-----2-0-----------------------------| X2
C-----------------2---------------------------|
G---------------------------------------------|

Yes, she's walking back to me.

A---------2-5---------------------------------|
E---0-0-4-----2-0-----------------------------| X2
C-----------------2---------------------------|
G---------------------------------------------|

Oh, woh, pretty woman.

 

Tab Kommentare (1)
Sie müssen angemeldet sein, um an der Diskussion teilnehmen zu können
oder Beitreten

 

MegaTallica avatar
perfect, i would just change the riff a little
--------2-5--8-7-5-----------------------------|
E---0-0-4------------------------------------| X4
C--------------------------------------------|
G--------------------------------------------|

Source: www.ukulele-tabs.com
13 Jan 2018
Über dieses Lied

Keine Informationen über dieses Lied.