Sweet Home Chicago Tabulatur von Robert Johnson

Ukulele Tabs ohne Akkorde.

Song bewerten!
druckenTab ins SongBook hinzufügen

Tablature / Chords (Ganzer Song)

Font size: A- A A+

Künstler: 
Jahr:  1990
Key: unbekanntTabulaturen (ohne Akkorde)
S                               
A---------------|---------------------------|--------6-----2--6-------|
E---------------|---------------------------|-----0-------------------|
C---------------|---------------------------|-4---2--6--------6-----6-|
G--9---9---9----|-6--9--9--9--5--9--5--6-4--|-4---------2--------2----|

A----2-4-----2-5---|--0-0-0-0-0-0-0----|---2---4-2-2-4------|
E------------------|--0---2---3---2----|-----0--------------|
C------4-4-2-4-4---|-------------------|---4---4-4-4-4------|
G--0-1-----------0-|--2-------------0--|-0-1-----------0-0--|

A----2---2-4-4-2-2-4---|--0-0-0-0-0-0-0-0--|---2---4-2-2-4------|
E------0---------------|--0---2---3-3-2----|-----0--------------|
C----4---4-4-4-4-4-4---|-------------------|---4---4-4-4-4------|
G--0-1---------------0-|----------------0--|-0-1-----------0-0--|

A----2---4---5---4---4-|----2---4-4-2-2-4----|
E------0---------------|------0--------------|
C----4---4-4-4-4-4---4-|----4---4-4-4-4-4-6--|
G--0-1-------------0-0-|--0-1----------------|

A--6----6----2---2-----|--4------4---4---4----2--4----|--2-----5---4---3-----|
E----------------------|---*-3---*--*--*--------0-|----------0---0-0---0-|
C--6----6----3---------|--------------------------|--4-------------------|
G--------------------0-|--4-----4--4--4-----------|----2-4-----3---2-0-1-|

A----2---2--2-----2--2--2--2-----|
E----0---------------------------|
C----4---6--3--------3-----3-----|
G--------------2--2--2--2-----0--|
S
A-------------|------------------------------|----------------7----|
E---5---------|------------------------------|--------------------|
C-------------|------------------------------|----------------4---|
G-----4--9----|--7--9--4--6--6--9--9--5--5---|--4---0--4--7---7---|

Tabulatur von , 20 Jul 2013

Tab Kommentare (0)

Noch kein Kommentar vorhanden :(
Brauchen Sie Hilfe, haben Sie einen Tipp zu teilen, oder wollen einfach nur über dieses Lied sprechen? Starte die Diskussion!

Kommentieren
Teilen Sie Ihre Strumming-Muster, Akkorde oder Tipps zum Spielen dieser Registerkarte mit!

Top Tabs & Akkorde von Robert Johnson, verpassen Sie diese Songs nicht!

Über dieses Lied: Sweet Home Chicago

Keine Informationen über dieses Lied.

Haben Sie Sweet Home Chicago auf Ihrer Ukulele gecovert? Teilen Sie Ihr Werk!
Cover abgeben