Ussr Anthem Tabulatur von Red Army Choir

Ukulele Tabs ohne Akkorde.

Tab ins SongBook hinzufügen
Tablature / ChordsFont size: A- A A+

Sie wissen nicht wie man einen Tab oder Akkorde liest ?
Schauen Sie sich diesen uke Unterricht an:

Ukulelen-Unterricht

A|-------------|-3-----------|-2-----------|-------------|-------------|
E|-------------|-------------|-------0--0--|-----------1-|-------------|
C|-------------|-------------|-------------|-------------|-------0--0--|
G|----------0--|-------0---2-|-------------|-2-----0-----|-0-----------|

A|-------------|-------------|-------2--3--|-5-----------|
E|----------0--|-1-----1-----|-------------|-------------|
C|-2-----2-----|-------------|-------------|-------------|
G|-------------|----------0--|-2-----------|----------0--|

A|-------5---3-|-5-----2-----|-3-----2-----|-2-----------|
E|-0-----------|-------------|-------------|-------0--0--|
C|-------------|-------------|-------------|-------------|
G|-------------|----------0--|-----------2-|-------------|

A|-------------|-------------|-3-----2-----|-------------|
E|----------1--|-------------|-------------|-------------|
C|-------------|-------0--0--|-------------|-------------|
G|-2-----0-----|-0-----------|-----------2-|-0-----------|

A|-------------|-5--3--2--3--|-5-----2-----|-------------|
E|-0-----------|-------------|-------------|-------------|
C|-------------|-------------|-------------|-------------|
G|-------------|-------------|----------0--|-0-----------|

A|-3-----------|-2-----------|-2-----------|-------------|
E|-------------|-------------|----------0--|-0-----------|
C|-------------|-------------|-------------|-------------|
G|-------------|----2--0--2--|-------------|-------------|

A|-3---------2-|-3---------2-|-3--------3--|-------------|
E|-------------|-------------|-------------|-1-----------|
C|-------------|-------------|-------------|-------------|
G|-------2-----|-------2-----|-------2-----|-------------|

A|-------------|----5--3--5--|----------3--|-3-----------|
E|-1-----------|-0-----------|-0-----------|-------------|
C|-------------|-------------|-------------|-------------|
G|-------------|-------------|-------------|-------------|

A|-5-----------|-3--2-----2--|-3-----------|-------------|
E|-------------|-------------|-------------|-------------|
C|-------------|-------------|-------------|-------------|
G|-------------|-------2-----|----------2--|-2-----------|

A|-3-----2-----|-------------|-3-----2-----|-------------|
E|-------------|-------------|-------------|-------------|
C|-------------|-------0---0-|-------------|-------------|
G|----------2--|-0-----------|----------2--|-0--------0--|

A|-3-----2-----|-------------|-------------|-------2-----|-3-----------|
E|-------------|-------------|-------------|-------------|-------------|
C|-------------|-------0---0-|-------------|-------------|-------------|
G|----------2--|-0-----------|-0-----------|-2-----------|-------------|

 

Tab Kommentare (5)
Sie müssen angemeldet sein, um an der Diskussion teilnehmen zu können
oder Beitreten

 

BLaddict avatar
flag for DE(ISO2) (kaiserslautern)
thank you comrade
02 Jun 2020
Charloo avatar
flag for US(ISO2) (Upstate NY)
great riff comrade
09 Feb 2020
TehEpicOne avatar
flag for AU(ISO2) (Sydney )
Oh well of to hang myself
01 Dec 2019
TehEpicOne avatar
flag for AU(ISO2) (Sydney )
Who drank all the vodka?
27 Nov 2019
fromunderthecorkdre avatar
THANK YOU COMRADE
03 Mar 2019
Über dieses Lied

Keine Informationen über dieses Lied.