Aloha Oe Tabulatur von Queen Liliuokalani

1 Im Lied verwendete Ukulelengriffe: E

druckenTab ins SongBook hinzufügen
Tablature / ChordsFont size: A- A A+

Sie wissen nicht wie man einen Tab oder Akkorde liest ?
Schauen Sie sich diesen uke Unterricht an:

Ukulelen-Unterricht

Aloha Oe                                     


^ v
H Q Q Q. E E E E E E E E E E H. E E E E
A||---------------------|--2------0--3-----------|--2------------2--1--|
E||---------------------|--3---------0--2-----0--|--3------------3--3--|
C||----------------2----|--2---------0-----------|--2------------2--1--|
G||---------------------|--0---------0-----0-----|------------------0--|


v
Q. E E E E E E E E E E H. E E E E Q. E E E E E E E E E E
--0---------0--2--3--2--|--0------------------|--2------0--3-----------|
--2------4--2-----0--3--|--2---------------3--|--3---------0--2-----0--|
--0---------2-----0--2--|--2------------2-----|--2---------0-----------|
------------------0--0--|--2------------------|--0---------0-----0-----|


^ v
H Q. E E Q E E E E Q E E E E H Q E E E E
--2--------L---------|-------0-----0----2--0--|--2--------L----------|
--3--------L---------|--0----0-----2----2-----|--3--------L----------|
--2--------L------2--|--0----1-----2----0-----|--2--------L-------2--|
---------------------|--0----0--0--2----2-----|--0-------------------|


^ v v v
Q Q Q. E E Q Q Q. E E E E E E E E E E E E E E E E E E
------------3---------|--2---------2---------|--------------0--0--2--3--|
--0----0----0------0--|--3----3----3---------|--2--0--2--3--2-----------|
--0----0----0---------|--2----2----2---------|--2-----------0-----------|
--0----0----0---------|-------0----0------0--|--2-----------2-----------|


v v v v
H Q. E E Q Q Q. E E Q Q Q. E E
--2--------2---------|------------3---------|--2---------2---------|
--3--------1---------|--0----0----0------0--|--3----3----3---------|
--2--------2------2--|--0----0----0---------|--2----2----2---------|
--0--------0---------|--0----0----0---------|-------0----0------0--|


Q. E E E E E E E E E E H Q. E E
------------2--0--------|--2--------L---------||
--2---------2-----2--L--|--3--------L---------||
--2---------0-----------|--2--------L---------||
--2------0--2-----------|--0--------L---------||




Duration Legend
---------------
W - whole
H - half
Q - quarter
E E - 8th
. - note dotted


Tablature Legend
----------------
^ - brush up
v - brush down

 

Tab Kommentare (2)
Sie müssen angemeldet sein, um an der Diskussion teilnehmen zu können
oder Beitreten

 

 avatar
flag for (ISO2)
It's a little difficult.
24 Nov 2014
8765trew avatar
flag for US(ISO2) (Johns Creek)
?
11 Apr 2012
Über dieses Lied

Keine Informationen über dieses Lied.