Yellow Ledbetter Tabulatur von Pearl Jam

Ukulele Tabs ohne Akkorde.

Tab ins SongBook hinzufügen
Tablature / ChordsFont size: A- A A+

Sie wissen nicht wie man einen Tab oder Akkorde liest ?
Schauen Sie sich diesen uke Unterricht an:

Ukulelen-Unterricht

H        H  P    S   S     P                P        H P                
-|-------------6-----------|----------------9-9--|-7--------7---7--|-----------
-|------4-----------------|----------2----------|-5-5-5-5--5------|-----------
-|-4--6----4---4-6--4-----|------------3---3-3--|------------2----|-----------
-|----4----4---6------6---|--4-4-6-4---4---4-6--|-6--------6---6--|-----------
H P P S S H H
-|-----------7----|------9--------9----------|--------------6-----------|---------
-|-5-5---5-2------|-----------------------|-------4-----------4-----|---------
-|----------------|-4-----------------6---|--4--6----4---4-6--4-----|---------
-|-----4---5---6--|------9--11---9--6------|-----4----4---6------6---|---------
P P H H P S S
-|----------9-9--9-9---9--|-7----------------7---7--|------9--------9----|-------
-|------------------------|-5-5--5--5---5------2-5--|-----------------|-------
-|----3-3---3-3--3-3---3--|-----------2----2---2----|-4-----------20---|-------
-|-4------6-6-4--4-4-4-6--|-6-------6--------6---6--|------9--16---9---|-------
H H P H P S H S
-|----------------------|--------9--9---8---------9--|---7----7--7-----7--|----
-|------4--------4----4-|---------------7--2-4-2----|-5-5----5--5-----5--|----
-|-4--6----4---4--4-4-4-|----3-3-4--4-3-11--3-----3--|-----2--2--9--------|----
-|----4----4---4--4-4---|-4--4-4-4--4---8--------4--|---6-------6-----6--|----
-|-7--------------------|-9-------------------------|-7------------------|----
-|-0--------------------|-7-------------------------|-5------------------|----
-|-11--------------------|-11-------------------------|-9------------------|----
-|----------------------|---------------------------|--------------------|----
H H P H P S
-|------------------|-------------6--------|-------9---9----9--9--4----4---|-----
-|-----------^------|------4--------------|------------------------2----|-----
-|-4----------------|-4--6----4---4-6--4--|-----3-3---3----3--3--3---3--|-----
-|-----4---9--------|----4----4---6-------|-4-----4-4-4-6--4--4--4---4--|-----
-|-7----------------|-7-------------------|-9---------------------------|-----
-|-0----------------|-0-------------------|-7---------------------------|-----
-|-11----------------|-11-------------------|-11---------------------------|-----
-|------------------|---------------------|-----------------------------|-----
P P P H H H H S
-|-9-7----7------7----7---7--7-|--------------|----------------------------|--
-|-5---5--5----5-5----5---5--5-|--------------|------------4----4----4-----|--
-|--------2----2-2------2------|-4------------|-4--6-6-4-6------4-6-----4--|--
-|-6---6----6------6--6---6--6-|--------------|----4---4----------------4--|--
-|-7---------------------------|-7------------|-7--------------------------|--
-|-5---------------------------|-0------------|-0--------------------------|--
-|-9---------------------------|-11------------|-11--------------------------|--
-|-----------------------------|--------------|----------------------------|--
P H S S
-|-------9-----8------9-9-9--|-7-----7---------7---------------------|---------
-|-------------7------------|-5-----5---5---5-----5-----------------|---------
-|-------3-----11---4---3-3--|-9-----------2-----2-----4---4---------|---------
-|--4----4-4---8-----6-4-4--|-6--6--6---6---------6---6---6---------|---------
-|--9-----------------------|-7-------------------------------------|---------
-|--7-----------------------|-5-------------------------------------|---------
-|--11-----------------------|-9-------------------------------------|---------
-|--------------------------|---------------------------------------|---------
H H H H H P S
-|-------6---------------------------|--------------4------------|--------------
-|-----------------4-----------4----|------4-------------------|--------------
-|-4-----4-6--4-6---4---4-----------|-4--6----4-4--4-------4---|--------------
-|-------6----------4---4-6--4----4-|----4----4-4--4-6--4--4---|--------------
-|-7--------------------------------|-7------------------------|--------------
-|-0--------------------------------|-0------------------------|--------------
-|-11--------------------------------|-11------------------------|--------------
-|----------------------------------|--------------------------|--------------
P S H P S
-|-8--9----9--9-8--9---9--|------7---7-7---7---7-7-7-7---|----2---2-2-4-2-----|-
-|-7-----------7--------|-5--5-5---5-7-5---5-5-5-5-5---|----0---0-0-0-0-----|-
-|-11-3----3--3-11-3---3--|------------------------------|-4--------------7---|-
-|-8-4--6-6--4-8-4-4-4--|------6-4-6-6-----6---6-6-6---|----1---1-1-1-1-7---|-
-|-9--------------------|-7----------------------------|-7------------------|-
-|-7--------------------|-5----------------------------|-0------------------|-
-|-11--------------------|-9----------------------------|-11------------------|-
-|----------------------|------------------------------|--------------------|-
H S
-|-----------------------------------|----9--9-9--9---9---9-9-9----|-----------
-|---4-----47----4----4---4--4--4----|------------7---------------|-----------
-|-6----4---4--4--4-4------4----4----|----3--3-4--11--3---3-3---2--|-----------
-|-4----4---9-----4----4---4--4---4--|-4--4--4-4--9--4-4-4-4-4-0--|-----------
-|-7---------------------------------|-9--------------------------|-----------
-|-0---------------------------------|-7--------------------------|-----------
-|-11---------------------------------|-11--------------------------|-----------
-|-----------------------------------|----------------------------|-----------
H P
-|-------7-7--7--7--7--7----|-------4------------------------------|-----------
-|-5--5--5-5--5--5--5--5----|----------------4-----4--4--4--------|-----------
-|---------9--9-----9----4--|-4--4--4-6--4-4----4---4-------4-4-4-|-----------
-|-------6-7--7--6--6--6----|-------4------4--------4--4----4-4-4-|-----------
-|-7------------------------|-7-----------------------------------|-----------
-|-5------------------------|-0-----------------------------------|-----------
-|-9------------------------|-11-----------------------------------|-----------
-|--------------------------|-------------------------------------|-----------
H H H H P H
-|--------------------4---4---------------|-8---9-----9--------9---9-9-9------|--
-|---4-----4----4--4--------------4-----|-7-------------2------------------|--
-|-6----4--4-6--------4--4----4-------4-|-11--3-----3----3---3---3-3-3-4-4--|--
-|-4----4--------4--4-4--4-6--4-4--4--4-|-8--4-6-4-4--4---4-4-6-4-4-4------|--
-|-7------------------------------------|-9--------------------------------|--
-|-0------------------------------------|-7--------------------------------|--
-|-11------------------------------------|-11--------------------------------|--
-|--------------------------------------|----------------------------------|--
S H
-|-x---7-----7--7------7---|-----------------|------------------------------|-
-|-5---5-----5--5------5---|-----------------|--------------------4------4--|-
-|-9---9--------2------9---|-4---------------|------4-----4----6------6-----|-
-|-----6-----6---------6---|-----------------|-4-6---vvvv---4----b------b---|-
-|-7-----------------------|-7---------------|-7----------------------------|-
-|-5-----------------------|-0---------------|-0----------------------------|-
-|-9-----------------------|-11---------------|-11----------------------------|-
-|-------------------------|-----------------|------------------------------|-
-|-9--------------------------------|-7--------------------------|------------
-|-7--------------------------------|-5--------------------------|------------
-|-11--------------------------------|-9--------------------------|------------
-|----------------------------------|----------------------------|------------
-|--------------------------11-\9--7-|-9b10-r9-7---12-9-7---7---7---|------------
-|----------------------------------|----------9------------9---9-|------------
-|----------------------------------|-----------------------------|------------
-|-11-b13-r11-p9-11-vvvv-9-6--4---------|-----------------------------|------------
-|-7-------------------|-7----------------------------------|-----------------
-|-0-------------------|-0----------------------------------|-----------------
-|-11-------------------|-11----------------------------------|-----------------
-|---------------------|------------------------------------|-----------------
P
-|----b-------r----x-x-|------------------------------------|-----------------
-|-------4-------------|----------------4----4------4-------|-----------------
-|-6------------6--x---|------------------6------6-----6--4-|-----------------
-|---------------------|-4--6--4---6-4------b---r--b--r-----|-----------------
-|-9--------------------------------|-7-------------------------------------|-
-|-7--------------------------------|-5-------------------------------------|-
-|-11--------------------------------|-9-------------------------------------|-
-|----------------------------------|---------------------------------------|-
S H P P P
-|----------------------------------|---------------------------------------|-
-|----------------------------------|----4-----4----------------------------|-
-|-4-6---6--6--6--6--6--6---6--4----|-6-------------------------------------|-
-|------*--*--*--*--*--*---------6--|-------4-----4--6----6--4--6--4--6--4--|-
-|-7----------------------------|-7------------------------------------|------
-|-0----------------------------|-0------------------------------------|------
-|-11----------------------------|-11------------------------------------|------
-|------------------------------|--------------------------------------|------
S P
-|----------------------------------|--------------------------------------|------
-|---b--r-----------------------|----4--4---4-------------4----4-------|------
-|------------------------------|-6-------------------------6-----6--4-|------
-|-11--13--11--9--6--9--11--9---9---|---b-----6---4--6---6-4------*--r-----|------
-|-9-----------------------------|-7------------------------------------|-----
-|-7-----------------------------|-5------------------------------------|-----
-|-11-----------------------------|-9------------------------------------|-----
-|-------------------------------|--------------------------------------|-----
P P S
-|-------------------------------|--------------------------------------|-----
-|-------------------------------|----5------------------------4-----4--|-----
-|-6--4--6---4----6--4----4-6--4-|-6-----6----4----4-6--4---6-----------|-----
-|-----6---6--vvv------6---------|---b--r-------6-----------------4-----|-----
H H H
-|------------------------------------------|-------------------------|-------
-|------------------------------------------|---4-------4-------------|-------
-|------------------------------------------|-6---------4-6--4--------|-------
-|------------------------------------------|-4----------------4-6----|-------
-|-7----------------------------------------|-7-----------------------|-------
-|-0----------------------------------------|-0-----------------------|-------
-|-11----------------------------------------|-11-----------------------|-------
-|------------------------------------------|-------------------------|-------
H P H P H P H P H P H P H P H P H S
-|------------------------------------------|-------------------------|-------
-|------------------------------------------|-------------------------|-------
-|------------------------------------------|-------------------------|-------
-|-6----4--6--4--6--4--6--4--6--4--6--4--6--|4--6--4--6--4--6---------|-------
P P H
-|-4---9-9---9--9---9---9--|-7---7---7-----7----7---|----------7---------|-----
-|------------------------|-5-5-5---5--5----5--5---|-------------5^-----|-----
-|-11--3-3---3--3---3---3--|-------2------------2---|-4------------------|-----
-|-4--4-6-4-6--4---6-4-6--|-6---6---6-----6--------|--------------------|-----
-|-9----------------------|-7----------------------|-7------------------|-----
-|-7----------------------|-5----------------------|-0------------------|-----
-|-11----------------------|-9----------------------|-11------------------|-----
-|------------------------|------------------------|--------------------|-----
H H S H P
-|------------6-----------|------9---9---4-------|-7------7----7--7-7-----|-----
-|------4----------4-----|--------4---------4--|-5-5-5--5----5--5-5-5-x-|-----
-|-4--6----4--4-6--4-----|------3---3---3---3--|------------------------|-----
-|----4----4--6------6---|-4--4-4---4---4-4----|-6------6----6--6-6-6-x-|-----
-|-7---------------------|-9-------------------|-7----------------------|-----
-|-0---------------------|-7-------------------|-5----------------------|-----
-|-11---------------------|-11-------------------|-9----------------------|-----
-|-----------------------|---------------------|------------------------|-----
H H S
-|-----4----4----4--4--4-----4---|------------6------4--4------|-----------------------
-|-------------------4-----|------4-----------------5-|-----------------------
-|-4---4---4---4-4-4----4--|-4--6----4--4-6---4-4-----|-----------------------
-|-----4---4---4-4-4----4--|----4----4--6-----4-4-4---|-----------------------
-|-7-----------------------|-7------------------------|-----------------------
-|-0-----------------------|-0------------------------|-----------------------
-|-11-----------------------|-11------------------------|-----------------------
-|-------------------------|--------------------------|-----------------------
S S
-|-8---8---9----9-----4--9--9-9--|-7--7-7--7--7--7--7-x-4--|----------------------
-|-7--7-----------------------|-5--5-5--5--5--5--5-5---|----------------------
-|-11--11--3-4----4-3-11----3-3--|-9----2--2----------9-11-|----------------------
-|-8--8--4-4--4-4-4-4-6--6-4--|-6--6-------6--6--6---4-|----------------------
-|-9--------------------------|-7----------------------|----------------------
-|-7--------------------------|-5----------------------|----------------------
-|-11--------------------------|-9----------------------|----------------------
-|----------------------------|------------------------|----------------------
H H H
-|-----------------------------------|---------------------------x-|----------
-|----7-4---4--7-4--4--4---------4-4-|------4--7-4--4------4-------|----------
-|-4--6------4-6--4--4--4-4----4-4-4-|-4-4---4-6-----4-4-4--4--x-x-|----------
-|----9------4-9--4--4--4-4-6--------|-------4-9-----4-4-4--4--x-x-|----------
-|-7---------------------------------|-7---------------------------|----------
-|-0---------------------------------|-0---------------------------|----------
-|-11---------------------------------|-11---------------------------|----------
-|-----------------------------------|-----------------------------|----------
H
-|-8---8---9-9-4----9-9---8--8--7-|-7--7--7-7---x-7--7-7-2-|-----------------------
-|-7--7----------------7-7-5-|-5--5--5-5---5-5--5-5-0-|-----------------------
-|-11--11--4-3-11---3-3-4-11-11-9-|-9--9--------9------9---|-----------------------
-|-8--8--4-4-4---4-4---8-8-6-|-6--6--6-6---6-6--6-6---|-----------------------
-|-9-------------------------|-7----------------------|-----------------------
-|-7-------------------------|-5----------------------|-----------------------
-|-11-------------------------|-9----------------------|-----------------------
-|---------------------------|------------------------|-----------------------

-|-2---2-2--2-------|-0---0-0--0---2-----|-2---2-2--2----2---|-0------------|-
-|-0---0-0--2-------|-0---0-0--0---0-----|-0---0-0--2----2---|-0------------|-
-|------------------|--------------------|-------------------|--------------|-
-|-1---1-1--4-------|-2---2-2--2---2-----|-1---1-1--4----4---|-2------------|-

-|-2---2-2--2-------|-0---0-0--0---2-----|-2---2-2--2--------|-0------------|-
-|-0---0-0--2-------|-0---0-0--0---0-----|-0---0-0--2--------|-0------------|-
-|------------------|--------------------|-------------------|--------------|-
-|-1---1-1--4-------|-2---2-2--2---2-----|-1---1-1--4--------|-2------------|-

-|-----------------|-2-----------|--------------------|-0--------------|------
-|-----------------|-2-----------|--------------------|-0--------------|------
-|-3-------4-------|-------------|-3-------4----------|----------------|------
-|-4-------4-------|-4-----------|-4-------4----------|-2--------------|------

-|-----------------|-2-----------|--------------------|-0--------2-0-0-|------
-|-7--7-7--7-------|-2-----------|-7--7-7--7--7-7-7-7-|-0--------0-----|------
-|-3--3-3--4-------|-------------|-3--3-3--4--4-4-4-4-|----------------|------
-|-8--8-8--9-------|-4-----------|-8--8-8--9--9-9-9-9-|-2--------2-----|------
S S
-|-----------------|-2-------------|---------------------|-7-------7----------|-
-|-----------------|-2-------------|---------------------|-5-------5--------|-
-|-3-------4-------|---------------|-3-------4-----------|------------------|-
-|-4-------4-------|-4-------------|-4-------4-----------|-6---------14--11---|-

-|-----------------|-2-----2-2-x-x-|-----------------2-2-|-0----------------|-
-|-7--7-7--7---7-7-|-2-----2-2-----|-7--7-7--7---7-7-----|-0----------------|-
-|-3--3-3--4---4-4-|-----------x-x-|-3--3-3--4---4-4-2-2-|------------------|-
-|-8--8-8--9---9-9-|-4-----4-4-----|-8--8-8--9---9-9-0-0-|-2----------------|-
H H P S S P P
-|-----------------6-----------|---------------------9---9-|-------------------
-|------4---------------------|-------------2-------------|-------------------
-|-4--6----4-------4-6--4-----|-------3-------3-----3---3-|-------------------
-|----4----4--x-x--6------6---|--4--4---6-4---4--4--4-4-4-|-------------------
P H P S S
-|-7-------7---7-------7-----x-|-------------9-----------|----------------------
-|-5-5--5--5---5--5-5--5-5-5-5-|-----------------------|----------------------
-|-----------2---------------9-|-4----------------6----|----------------------
-|-6-------6---6-------6-----6-|--------11---9--6-------|----------------------
H H P S S P S S S S
-|-----------------6------------|---------------------------------|-------------
-|------4----------------------|--------------------------------|-------------
-|-4--6----4----x--4-6--4------|--------------4-6-------------4-|-------------
-|----4----4--x-x--6------6----|--4----4-6-4--6-8-----16----4----|-------------
S P S S
-|-------------------------|-------------------7-----7---|--------------------
-|--5----5----5------------|----------^-----------5^-----|--------------------
-|---------------2-4-------|-4---------------------------|--------------------
-|----------4----4-6--7----|----4---9---4----------------|--------------------
H H P S S H
-|---x-----------------------|---------9-9-8---9---9---9--|--------------------
-|--------4------4-----------|-------------7--------4----|--------------------
-|-4-x--6----4-x-4-6--4------|---------3-3-11--3---3---3--|--------------------
-|------4----4-x--------6----|--4--4-4-4-6-8--4---4---4--|--------------------
P H P
-|-7----7-----7------7--7--|------------------||------------------------------
-|-5-5--5--5--5---5--5--5--|------------^-----||------------------------------
-|----------------------2--|-4----------------||------------------------------
-|-6----6--6--6-4----6-----|------4---9-------||------------------------------

 

Tab Kommentare (0)
Noch kein Kommentar vorhanden :(
Brauchen Sie Hilfe, haben Sie einen Tipp zu teilen, oder wollen einfach nur über dieses Lied sprechen? Starte die Diskussion!

Sie müssen angemeldet sein, um an der Diskussion teilnehmen zu können
oder Beitreten

 

Über dieses Lied

Keine Informationen über dieses Lied.