Soon Forget Tabulatur von Pearl Jam

Ukulele Tabs ohne Akkorde.

Tab ins SongBook hinzufügen
Tablature / ChordsFont size: A- A A+

Sie wissen nicht wie man einen Tab oder Akkorde liest ?
Schauen Sie sich diesen uke Unterricht an:

Ukulelen-Unterricht

on the Binaural recording, it actually sounds a little flat (if
I'm not mistaken) just like Of The Girl for some unknown reason.

-|---------------3---3---3---3-3-3----3-----3----3-----3----|-----------------
-|---0---0---0---0---0---0---0-0-0--0-0---0-0----0-----0----|-----------------
-|---0---0---0---0---0---0---0-0-0--0-0---0-0----0-----0----|-----------------
-|-0---0---0---0-0-0---0---0-0-0-0--0-0---0-0--0-0---0-0-0--|-----------------
Sorry is the fool who trades his

-|-0--0--0------0---0-0-0-----3---3---------3----3--3--3--3-------------------
-|-1--1--1------1---1-1-1--2--2---2--2---2--2----2--2--2--2-------------------
-|-0--0--0-0--0-0---0-0----2--2------2---2-------2--2-------------------------
-|-2-----2------2---2-2-------------------------------------------------------
Soul for a corvette thinks he'll get the girl he'll only

-|----2------2---------2------2-------0------0--------0--------|--------------
-|----0---0--0--0------0---0--0--0----0--0---0--0--x--0--0-x-x-|--------------
-|----2---2--2--2------2---2--2--2----1--1---1--1--x--1--1-x-x-|--------------
-|--x-1------1--1------1------1-------0------0--0-----0--0-----|--------------
Get the mechanic what's missing he's

-|-----------------0-------------3-----3-----3-----3-2---------------------|-
-|--0---0---x-x-x--0-0--0-0--1---1-----1-1---1-1---1-3-x-x-x-x-x--x-x--x-x-|-
-|--1---1---x-x-x--1-1--1-1------0-----0-0---0-0---0-2-x-x-x-x-x--x-x--x-x-|-
-|--0---0---x-x-x--0-0--0-0------1-----1-1---1-1---1-0-x-x-x-x-x--x-x--x-x-|-
Living a day he'll soon forget that's

-|-0--0---0-0-0--0--0---0-0-2--2---2---2--2--2---2---2---2------|-------------
-|-1--1---1-1-1--1--1---1-1-1--1---1---1--1--1---1---1---1--x-x-|-------------
-|-0--0---0-0-0--0--0---0-0-2--2---2---2--2--2---2---2---2--x-x-|-------------
-|-2--2---2-2-2--2--2---2-2-0------0---0--0------0---0---0--x-x-|-------------
One more time around the sun is going down the

-|-2---2---2-------2---2---2----2--2---0-----------------------|--------------
-|-0---0---0--x-x--0---0---0--x-0--0---0--0--0-0-0-----0-----0-|--------------
-|-2---2---2--x-x--2---2---2--x-2--2---1--1--1-1-1-----1-----1-|--------------
-|-1---1---1-------1---1---1----1--1---0--0--0-0-0-----0-----0-|--------------
Moon is out but he's drunk and shouting putting people down he's

-|----0---0---0---0----2--------2-----2-----2---|-----------------------------
-|----1---1---1---1-1--1--1--1--1--1--1--1--1---|-----------------------------
-|--0---0---0---0-0-2-----2--2-----2-----2------|-----------------------------
-|----------------------------------------------|-----------------------------
Pissing he's living a day he'll soon for-

-|--3------------3------0-3-3------3---3-0-3--|-------------------------------
-|--0-0--0-0-1-0-0--0-0-1-0-0--0-0-1-0-0-1-0--|-------------------------------
-|--0-0--0-0-0-0-0--0-0-0-0-0--0-0-0-0-0---0--|-------------------------------
-|--------------------------------------------|-------------------------------
-get

-|----2-----2-----2-----2-----0---0-0--0---0---|------------------------------
-|----1-----1-----1-----1-----1---1-1--1---1---|------------------------------
-|-2-----2-----2-----2------0---0-0------0-0-0-|------------------------------
-|-0-----0-----0-----0------2---2-2------2-2-2-|------------------------------
Counts his money every morning

-|----2-----2-----2-----2-----0---0-0--0---0---|------------------------------
-|----1-----1-----1-----1-----1---1-1--1---1---|------------------------------
-|-2-----2-----2-----2------0---0-0------0-0-0-|------------------------------
-|-0-----0-----0-----0------2---2-2------2-2-2-|------------------------------
The only thing that keeps him horny

-|----2-----2-----2-----2-----0---0-0--0---0---|------------------------------
-|----1-----1-----1-----1-----1---1-1--1---1---|------------------------------
-|-2-----2-----2-----2------0---0-0------0-0-0-|------------------------------
-|-0-----0-----0-----0------2---2-2------2-2-2-|------------------------------
Locked in a giant house that's alarming the

-|----3-----3-----3-----3---2------------------------|------------------------
-|----1--1--1--1--1--1--1---3---x-x-x-x-x--x-x--x-x--|------------------------
-|----0-----0-----0-----0---2---x-x-x-x-x--x-x--x-x--|------------------------
-|-1-----1-----1-----1--1---0---x-x-x-x-x--x-x--x-x--|------------------------
Townsfolk they all laugh

-|---3----3----3--3---3----0--0-0----0--0-0-0-|-------------------------------
-|---0----0----0--0---0----1--1-1----1--1-1-1-|-------------------------------
-|-0-0--0-0--0-0--0-0-0----0--0-0----0--0-0-0-|-------------------------------
-|-0-0--0-0--0-0--0-0-0----2--2-2----2--2-2-2-|-------------------------------
Sorry is the fool who trades his love for hi-rise rent

-|---(3)--------(3)-------------------2---2--2-----2---2--2--2--|-------------
-|-2--2---2--x-x-2-----2---2--x-x-----0---0--0-----0---0--0--0--|-------------
-|-2--2---2--x-x-2-----2---2--x-x-----2---2--2-----2---2--2--2--|-------------
-|------------------------------------1---1--1-----1---1--1--1--|-------------
Seems the more you make equals the loneliness you get and it's

-|----0------------0------------0------------0----0-|-------------------------
-|--0-0---0---0--0-0---0---0--0-0---0---0--0-0--0-0-|-------------------------
-|--1-1---1---1--1-1---1---1--1-1---1---1--1-1--1-1-|-------------------------
-|----0---0---0--0-0---0---0--0-0---0---0--0-0--0-0-|-------------------------
Fitting he's barely living a

-|----3-----3-----3-----3---2-----------------------|-------------------------
-|-1--1-----1-----1-----1---3---x-x-x-x-x--x-x--x-x-|-------------------------
-|-0--0-----0-----0-----0---2---x-x-x-x-x--x-x--x-x-|-------------------------
-|-1--1-----1-----1-----1---0---x-x-x-x-x--x-x--x-x-|-------------------------
Day he'll soon forget that's

-|---0--0-0----0--0-0-0-----2---2--2--2-----2---2--2--2--|--------------------
-|---1--1-1----1--1-1-1--1--1---1--1--1--1--1---1--1--1--|--------------------
-|-0-0-------0----0------2---------------2---------------|--------------------
-|-2-2--2-2--2-2--2-2-2----------------------------------|--------------------
One more time around and there is not a sound he's

-|----2---2--2---2--2---2--2--2--2----0-0-----0-0----0-------|----------------
-|----0---0--0---0--0---0--0--0--0----0-0-----0-0----0-------|----------------
-|-2--2---2--2---2--2---2--2--2--2----1-1--1--1-1--1-1--1----|----------------
-|-1--1---1--1---1--1---1--1--1--1----0-0--0--0-0--0-0--0-0--|----------------
Lying dead clutching Benjamins never put the money down he's

-|-----0-----0-----0-----0--2----------2--------------------|-----------------
-|--1--1--1--1--1--1--1--1--1----------1--------------------|-----------------
-|--0-----0-----0-----0-----2----------2--------------------|-----------------
-|--2--2--2-----2-----2----------------0--------------------|-----------------
Stiffening we're all whistling a man we'll soon forget

-|-3-------------------------3--3--------3--0--3-----||-----------------------
-|-0--0-0-0-0--1-0--0--0-0-1-0--0--0-0-1-0--1--0-----||-----------------------
-|-0--0-0-0-0--0-0--0--0-0-0-0--0--0-0-0-0--0--0-----||-----------------------
-|---------------------------------------------------||-----------------------

 

Tab Kommentare (4)
Sie müssen angemeldet sein, um an der Diskussion teilnehmen zu können
oder Beitreten

 

xpanchox avatar
flag for CL(ISO2) (COncepcion)
100% Accurate
24 Jan 2013
andj2321 avatar
flag for CA(ISO2) (Lakefield)
thanks, guys. It was no problem
13 Dec 2012
grunge avatar
flag for US(ISO2) (Miami)
This is perfect, Thanks!
13 Dec 2012
Ukelerb avatar
flag for US(ISO2) (Portland)
Dead on. Great chord detail. On the album the uke is tuned down a bit, but I found a clip of Eddie playing this with Jack Johnson and the tuning was standard. Thank you for a great post!
11 Dec 2012
Über dieses Lied

Keine Informationen über dieses Lied.