I Am Mine Tabulatur von Pearl Jam

7 Im Lied verwendete Ukulelengriffe: D,F,C,G,Dsus4,Am,Cadd9

Tab ins SongBook hinzufügen
Tablature / ChordsFont size: A- A A+

Sie wissen nicht wie man einen Tab oder Akkorde liest ?
Schauen Sie sich diesen uke Unterricht an:

Ukulelen-Unterricht

Intro:

x3 /
A---0--0-0-0-0-0-0--0-0-0-0-0----0--0-0-0-0-0-0--0-0-0-0-0
E---3--3-6-8-6-5-5--5-6-5-1-3----3--3-6-8-6-5-5--5-0-0-0-0
C---2--2-5-7-5-4-4--4-5-4-0-2----2--2-5-7-5-4-4--4-1-1-1-1
G---0--0-0-0-0-0-0--0-0-0-0-0----0--0-0-0-0-0-0--0-2-2-2-2


Verse 1:

D D F F C C G G
The selfish they're all standing in line
D D F F C C G G
Faithing and hoping to buy themselves time
D D F F C C G G
Me, I figure as each breath goes by
F F G G D D Dsus4 Dsus4
I only own my mind

D D F F C C G G
The North is to South what the clock is to time
D D F F C C G G
There's East and there's West and there's everywhere life
D D F F C C G G
I know I was born and I know that I'll die
F F G G D D F F G G D D Dsus4 Dsus4
The in between is mine, I am mine



Chorus:

G G Am Am D D
And the feeling, it gets left behind
G G Am Am D D
All the innocence lost at one time
G G Am Am D D
significant, behind the eyes
Cadd9 Cadd9
theres no need to hide...

we're safe tonight


A---0--0-0-0-0-0-0--0-0-0-0-0----0--0-0-0-0-0-0--0-0-0-0-0
E---3--3-6-8-6-5-5--5-6-5-1-3----3--3-6-8-6-5-5--5-0-0-0-0
C---2--2-5-7-5-4-4--4-5-4-0-2----2--2-5-7-5-4-4--4-1-1-1-1
G---0--0-0-0-0-0-0--0-0-0-0-0----0--0-0-0-0-0-0--0-2-2-2-2


Verse 2:


D D F F C C G G
The ocean is full cause everyone's crying
D D F F C C G G
the full moon is looking for friends at hightide
D D F F C C G G
the sorrow grows bigger when the sorrows denied
F F G G D D F F G G D D Dsus4 Dsus4
I only know my mind, I am mine


Chorus:

G G Am Am D D
And the meaning, it gets left behind
G G Am Am D D
All the innocence lost at one time
G G Am Am D D
significant, behind the eyes
Cadd9 Cadd9
theres no need to hide...

we're safe tonight



x3 / x3
A---0--0-0-0-0-0-0-----0--0-0-0-0-0---
E---3--3-6-8-6-3-1-----3--3-6-8-6-3---
C---2--2-5-7-5-2-0-----2--2-5-7-5-2---
G---0--0-0-0-0-0-0-----0--0-0-0-0-0---


G G Am Am D D
And the feelings that get left behind
G G Am Am D D
all the innocence broken with lies
G G Am Am D D
significance, between the lines
Cadd9 Cadd9
we may need to hide


G G Am Am D D
And the meanings that get left behind
G G Am Am D D
all the innocents lost at one time
G G Am Am D D
we're all diffrent behind the eyes
Cadd9 Cadd9
there's no need to hide


Solo:

(Chorus)
G G Am Am D D
G G Am Am D D
G G Am Am D D
G G Am Am D D

 

Tab Kommentare (0)
Noch kein Kommentar vorhanden :(
Brauchen Sie Hilfe, haben Sie einen Tipp zu teilen, oder wollen einfach nur über dieses Lied sprechen? Starte die Diskussion!

Sie müssen angemeldet sein, um an der Diskussion teilnehmen zu können
oder Beitreten

 

Über dieses Lied

Keine Informationen über dieses Lied.