You And Your Friends Tabulatur von PEACH-PIT

6 Im Lied verwendete Ukulelengriffe: Am, G, C, F, Em, D7

Tab ins SongBook hinzufügen

Ansehen dieser Akkorde für Bariton

Transpose chords:
Akkorde:
halten sie während des scrollens akkorde auf dem bildschirm
Tablature / ChordsFont size: A- A A+

Sie wissen nicht wie man einen Tab oder Akkorde liest ?
Schauen Sie sich diesen uke Unterricht an:

Ukulelen-Unterricht

[Verse 1]
Am Am G G C C F F
Anytime you call me up past one it’s not my favourite way,
C C
To get at the feeling.
Am Am G G C C F F
I’ve gotten awful lots since tenth grade,
C C
Had you locked and leaving.
Am Am G G C C F F C C
If this could wrap around and through ya.
Am Am G G C C F F
I’ll be at the spot up river, thought you’d be there anyway.
C C
Where’d you think we’re meeting.


[Chorus]
F F
Come on let me hear it,
G G C C Em Em Am Am
Everyone’s a villain baby save for you and your friends.
F F G G
I’ll be in division, she’s freezing in the kitchen.
C C Em Em Am Am Em Em F F
Won’t you let me be the best one that you know,
D7 D7
But you won’t.



[Instrumental 1]
e|-----------------|-----------------|-----------------------------------------------|
B|-----------------|-----------------|-----------------------------------------------|
G|--------4--5-----|--------4--5-----|----------------------------9-----9-----9------|
D|--2--2--------3--|--2--2--------3--|--2--2--5-5-5--x-3--x-2--10----10----10----10--|
A|-----------------|-----------------|-----------------------------------------------|
E|-----------------|-----------------|-----------------------------------------------|

e|--------7--8-----|--------7--8-----|-------------------------|
B|--5--5--------6--|--5--5--------6--|--5--5--8-8-8--x-6--x-5--|
G|-----------------|-----------------|-------------------------|
D|-----------------|-----------------|-------------------------|
A|-----------------|-----------------|-------------------------|
E|-----------------|-----------------|-------------------------|


[Verse 2]
Am Am G G C C F F
Anytime you call me up past one it’s not a bother kid,
C C
Later we’ll be laughing.
Am Am G G C C F F
Had ya been sitting in my thought again
C C
I’d have seen you passing.
Am Am G G C C F F C C
If this could wrap around and through ya.
Am Am G G C C F F
I’ll be at the spot up river, thought you be there anyway.
C C
Where’d you think we’re meeting.



[Chorus]
F F
Come on let me hear it,
G G C C Em Em Am Am
Everyone’s a villain baby save for you and your friends.
F F G G
I’ll be in division, she’s freezing in the kitchen.
C C Em Em Am Am Em Em F F
Won’t you let me be the best one that you know,
D7 D7
But you won’t.


[Intrumental 2]
(Slap with right hand at the end to mute)
e|--------------------------------5--|------------------------|------------x--|
B|-----8/10--8/10--8--3/5--3/5--3----|----------3-------------|--8/10------x--|
G|-----------------------------------|--4--2/4-----4--2/4-----|------------x--|
D|--7--------------------------------|---------------------5--|-------10h--x--|
A|-----------------------------------|------------------------|------------x--|
E|-----------------------------------|------------------------|------------x--|

e|---------------------------------|-------------------|
B|-----8/10--8/10--8--3/5--3/5--3--|----------3--5--3--|
G|---------------------------------|--4--2/4-----------|
D|--7------------------------------|-------------------|
A|---------------------------------|-------------------|
E|---------------------------------|-------------------|

e|---------------------------------|------------------------|
B|-----8/10--8/10--8--3/5--3/5--3--|----------3-------------|
G|---------------------------------|--4--2/4-----4--2/4-----|
D|--7------------------------------|---------------------5--|
A|---------------------------------|------------------------|
E|---------------------------------|------------------------|

(Keep playing on the bent string until release)
e|----------------------------------------------------------|
B|-----8/10--8/10--8--3/5--3/5--5b6--6--6--6--6--6--6--6r5--|
G|----------------------------------------------------------|
D|--7-------------------------------------------------------|
A|----------------------------------------------------------|
E|----------------------------------------------------------|

e|--------7--8-----|--------7--8-----|----------------------------------------------|
B|--5--5--------6--|--5--5--------6--|--5--5--8-8-8--x-6--x-5--3--3--3--3--5--5--3--|
G|-----------------|-----------------|----------------------------------------------|
D|-----------------|-----------------|----------------------------------------------|
A|-----------------|-----------------|----------------------------------------------|
E|-----------------|-----------------|----------------------------------------------|

e|-----------------|-----------------|-----------------------------------------------|
B|-----------------|-----------------|-----------------------------------------------|
G|--------4--5-----|--------4--5-----|----------------------------9-----9-----9------|
D|--2--2--------3--|--2--2--------3--|--2--2--5-5-5--x-3--x-2--10----10----10----10--|
A|-----------------|-----------------|-----------------------------------------------|
E|-----------------|-----------------|-----------------------------------------------|


[Outro]
F F
Come on let me hear it,
G G C C Em Em Am Am
Everyone’s a villain baby save for you and your friends.
F F G G
I’ll be in division, she’s freezing in the kitchen.
C C Em Em Am Am Em Em F F D7 D7
Won’t you let me be the best one that you know.

 

Tab Kommentare (0)
Noch kein Kommentar vorhanden :(
Brauchen Sie Hilfe, haben Sie einen Tipp zu teilen, oder wollen einfach nur über dieses Lied sprechen? Starte die Diskussion!

Sie müssen angemeldet sein, um an der Diskussion teilnehmen zu können
oder Beitreten

 

Über dieses Lied

Keine Informationen über dieses Lied.