Black Licorice Tabulatur von PEACH-PIT

4 Im Lied verwendete Ukulelengriffe: A, Dmaj7, E, B

Tab ins SongBook hinzufügen

Ansehen dieser Akkorde für Bariton

Transpose chords:
Akkorde:
halten sie während des scrollens akkorde auf dem bildschirm
Tablature / ChordsFont size: A- A A+

Sie wissen nicht wie man einen Tab oder Akkorde liest ?
Schauen Sie sich diesen uke Unterricht an:

Ukulelen-Unterricht

[Intro]

e|--14--------------------------------|
B|--17b19--14-----12-----9------7-----|
G|---------16b18--14b16--11b13--9b11--|
D|------------------------------------|
A|------------------------------------|
E|------------------------------------|

e|--14--------------------------------|
B|--17b19--14-----12-----10-----------|
G|---------16b18--14b16--12b14--------|
D|------------------------------------|
A|------------------------------------|
E|------------------------------------|

A A Dmaj7 Dmaj7 E E Dmaj7 Dmaj7 x2


[Verse 1]
A A Dmaj7 Dmaj7
If you don't even wanna say my name anymore that's fine
E E Dmaj7 Dmaj7
'Cause I'm so wasted, I don't mind
A A Dmaj7 Dmaj7
Wait a little and you will see I can be that guy
E E Dmaj7 Dmaj7
Straight up wasted, on a dime




[Chorus]
A A E E
I'm just black licorice
B B
And all the people that I know
Dmaj7 Dmaj7
Would rather leave me in the bowl


[Verse 2]
A A Dmaj7 Dmaj7
Chucky knows he'll have to carry me home, and he'll say that's fine
E E Dmaj7 Dmaj7
But he's my baby, he won't mind
A A Dmaj7 Dmaj7
Allie goes it just like me but she's on a stride
E E Dmaj7 Dmaj7
Of keeping her shit right in line

Unlike mine


[Chorus]
A A E E
I'm just black licorice
B B
And all the people that I know
Dmaj7 Dmaj7
Would rather leave me in the bowl

A A E E
I'm just black licorice
B B
And all the people that I know
Dmaj7 Dmaj7
Would rather leave me in the bowl


[Break]

E E Dmaj7 Dmaj7 x4

[Outro]
A A E E
I'm just black licorice
B B
And all the people that I know
Dmaj7 Dmaj7
Would rather leave me in the bowl

A A Dmaj7 Dmaj7 E E Dmaj7 Dmaj7 x2

 

Tab Kommentare (0)
Noch kein Kommentar vorhanden :(
Brauchen Sie Hilfe, haben Sie einen Tipp zu teilen, oder wollen einfach nur über dieses Lied sprechen? Starte die Diskussion!

Sie müssen angemeldet sein, um an der Diskussion teilnehmen zu können
oder Beitreten

 

Über dieses Lied

Keine Informationen über dieses Lied.