Something Tabulatur von Mxmtoon

4 Im Lied verwendete Ukulelengriffe :

Tab ins SongBook hinzufügen

Ansehen dieser Akkorde für Bariton

Transpose chords:
Tablature / ChordsFont size: A- A A+

Sie wissen nicht wie man einen Tab oder Akkorde liest ?
Schauen Sie sich diesen uke Unterricht an:

Ukulelen-Unterricht


Dm chordDm G chordG C chordC C7 chordC7 x2


Dm chordDm G chordG
I'm happy for you
C chordC
I'm smiling for you
C7 chordC7
I'd do anything
Dm chordDm
For you for you


G chordG
It's always for you
C chordC
And never for me
C7 chordC7
And I need it to stop
Dm chordDm
So let me tell you please


G chordG
I'm always sad and
C chordC
I'm always lonely
C7 chordC7
But I can't tell you
Dm chordDm
That I'm breaking slowly


G chordG
Closed doors
C chordC
Locked in no keys
C7 chordC7
Keeping my feelings hidden
Dm chordDm
There is no ease


G chordG
And I need it to stop
C chordC C7 chordC7
And I want to be able to open up but
Dm chordDm G chordG
My feelings are fatal
C chordC C7 chordC7
My feelings are fatal

#If you want you can use this for fingerpicking
A|-0------0------0------------------------|
E|---1------1-----------------------------|
C|-----2-----2----------------------------|
G|----------------------------------------|



A|--2-------2-------2---------------------|
E|----3-------3---------------------------|
C|------2-------2-------------------------|
G|----------------------------------------|



A|--3-------3--------3--------------------|
E|-----0-------0--------------------------|
C|-------0-------0------------------------|
G|----------------------------------------|



A|-1------1----------1--------------------|
E|---0--------0---------------------------|
C|-----0----------0-----------------------|
G|----------------------------------------|
#If you repeat the tab over and over you have the whole song

 

Tab Kommentare (2)
Sie müssen angemeldet sein, um an der Diskussion teilnehmen zu können
oder Beitreten

 

memequeensupreme avatar
yeah, you could have just googled the name, homie.
27 Feb 2019
UkuleleBASIC avatar
flag for US(ISO2) (Boston,MA)
this is "Feelings are fatal". Erm....
16 Mar 2018
Über dieses Lied

Keine Informationen über dieses Lied.