Comforting Sounds (Intro) Tabulatur von Mew

Ukulele Tabs ohne Akkorde.

Tab ins SongBook hinzufügen
Tablature / ChordsFont size: A- A A+

Sie wissen nicht wie man einen Tab oder Akkorde liest ?
Schauen Sie sich diesen uke Unterricht an:

Ukulelen-Unterricht

|---------------------------------------------------------|
|---5--5------5--5--5-----5--5--5------5--5--5-----5------|
|---------------------------------------------------------|
|---------6------------6-----------6------------6---------|

|---------------------------------------------------------|
|-------4-------4--------4--------4-----------------------|
|---4-4---4-4-4----4-4-4----4-4-4----4--------------------|
|---------------------------------------------------------|

|---------------------------------------------------------|
|-------2--------2--------2-------2-----------------------|
|---2-2----2-2-2----2-2-2---2-2-2---2---------------------|
|---------------------------------------------------------|

|---------------------------------------------------------|
|---------------------------------------------------------|
|---9--9-----9--9--9-----9--9--9-----9--9--9----9---------|
|---6--6-----6--6--6-----6--6--6-----6--6--6----6---------|

|---------------------------------------------------------|
|---4-4----4-4-4----4-4-4----4-4-4---4--------------------|
|---4-4----4-4-4----4-4-4----4-4-4---4--------------------|
|---------------------------------------------------------|

|-------5--------5--------5--------5----------------------|
|---2-2----2-2-2----2-2-2----2-2-2----2-------------------|
|---2-2----2-2-2----2-2-2----2-2-2----2-------------------|
|---------------------------------------------------------|

|----------------------------4---------4--------------------|
|---4-4--4-4-4-4---44-4-4----4-4-4----4-------------------|
|---4-4----4-4-4----4-4-4----4-4-4----4-------------------|
|----------------------------13--------13-------------------|

|---------------------------------------------------------|
|---------5-----------5-----------5-----------5-----------|
|---9--9-----9--9--9-----9--9--9-----9--9--9-----9--------|
|---6--6-----6--6--6-----6--6--6-----6--6--6-----6--------|

|-------7--------7--------7--------7----------------------|
|---4-4----4-4-4----4-4-4----4-4-4----4-------------------|
|---4-4----4-4-4----4-4-4----4-4-4----4-------------------|
|---------------------------------------------------------|

|-------5--------5--------5--------5----------------------|
|---2-2----2-2-2----2-2-2----2-2-2----2-------------------|
|---2-2----2-2-2----2-2-2----2-2-2----2-------------------|
|---------------------------------------------------------|

|---------------------------------------------------------|
|---------------------------------------------------------|
|---9--9-----9--9--9-----9--9--9-----9--9--9----9---------|
|---6--6-----6--6--6-----6--6--6-----6--6--6----6---------|

|---------------------------------------------------------|
|---4-4----4-4-4----4-4-4----4-4-4---4--------------------|
|---4-4----4-4-4----4-4-4----4-4-4---4--------------------|
|---------------------------------------------------------|

|-------5--------5--------5--------5----------------------|
|---2-2----2-2-2----2-2-2----2-2-2----2-------------------|
|---2-2----2-2-2----2-2-2----2-2-2----2-------------------|
|---------------------------------------------------------|

|---------------------------------------------------------|
|---------5-----------5-----------5-----------5-----------|
|---9--9-----9--9--9-----9--9--9-----9--9--9-----9--------|
|---6--6-----6--6--6-----6--6--6-----6--6--6-----6--------|

|-------7--------7--------7--------7----------------------|
|---4-4----4-4-4----4-4-4----4-4-4----4-------------------|
|---4-4----4-4-4----4-4-4----4-4-4----4-------------------|
|---------------------------------------------------------|

|-------5--------5--------5--------5----------------------|
|---2-2----2-2-2----2-2-2----2-2-2----2-------------------|
|---2-2----2-2-2----2-2-2----2-2-2----2-------------------|
|---------------------------------------------------------|

|---------------------------------------------------------|
|---------5-----------5-----------5-----------5-----------|
|---9--9-----9--9--9-----9--9--9-----9--9--9-----9--------|
|---6--6-----6--6--6-----6--6--6-----6--6--6-----6--------|

|-------7--------7--------7--------7----------------------|
|---4-4----4-4-4----4-4-4----4-4-4----4-------------------|
|---4-4----4-4-4----4-4-4----4-4-4----4-------------------|
|---------------------------------------------------------|

|-------5--------5--------5--------5----------------------|
|---2-2----2-2-2----2-2-2----2-2-2----2-------------------|
|---2-2----2-2-2----2-2-2----2-2-2----2-------------------|
|---------------------------------------------------------|

|---------------------------------------------------------|
|---------5-----------5-----------5-----------5-----------|
|---9--9-----9--9--9-----9--9--9-----9--9--9-----9--------|
|---6--6-----6--6--6-----6--6--6-----6--6--6-----6--------|

|-------7--------7--------7--------7----------------------|
|---4-4----4-4-4----4-4-4----4-4-4----4-------------------|
|---4-4----4-4-4----4-4-4----4-4-4----4-------------------|
|---------------------------------------------------------|

|-------5--------5--------5--------5----------------------|
|---2-2----2-2-2----2-2-2----2-2-2----2-------------------|
|---2-2----2-2-2----2-2-2----2-2-2----2-------------------|
|---------------------------------------------------------|

|---------------------------------------------------------|
|---------5-----------5-----------5-----------5-----------|
|---9--9-----9--9--9-----9--9--9-----9--9--9-----9--------|
|---6--6-----6--6--6-----6--6--6-----6--6--6-----6--------|

|-------7--------7--------7--------7----------------------|
|---4-4----4-4-4----4-4-4----4-4-4----4-------------------|
|---4-4----4-4-4----4-4-4----4-4-4----4-------------------|
|---------------------------------------------------------|

|-------5--------5--------5--------5----------------------|
|---2-2----2-2-2----2-2-2----2-2-2----2-------------------|
|---2-2----2-2-2----2-2-2----2-2-2----2-------------------|
|---------------------------------------------------------|

|---9---------|
|---9--------|
|---9--------|
|---13--------|

|-----------|
|---5-------|
|---4-------|
|---6-------|

 

Tab Kommentare (0)
Noch kein Kommentar vorhanden :(
Brauchen Sie Hilfe, haben Sie einen Tipp zu teilen, oder wollen einfach nur über dieses Lied sprechen? Starte die Diskussion!

Sie müssen angemeldet sein, um an der Diskussion teilnehmen zu können
oder Beitreten

 

Über dieses Lied

Keine Informationen über dieses Lied.