Nouveaux Horizons Tabulatur von Melissa NKonda

5 Im Lied verwendete Ukulelengriffe: Gm, Dm, Cm, A#, F

Tab ins SongBook hinzufügen
Tablature / ChordsFont size: A- A A+

Sie wissen nicht wie man einen Tab oder Akkorde liest ?
Schauen Sie sich diesen uke Unterricht an:

Ukulelen-Unterricht

Gm Gm   Dm Dm   Cm Cm   A# A#   F F
A----5----5----3----1----0
E----6----5----3----1----1
C----7----5----3----2----0
G----7----0----0----3----2


Intro

A--------5------------3------------3-------------------------
E-----6----6-------5----5-------3----3-------1-----1---------
C--7------------5------------3------------2-----0------------
G------------------------------------------------------------

Then along

Gm--Dm--Cm--A#-F-

 

Tab Kommentare (1)
Sie müssen angemeldet sein, um an der Diskussion teilnehmen zu können
oder Beitreten

 

Glamantina avatar
flag for FR(ISO2) (Brest)
(0765) - (0555) - (0333) - (3211) -(2010)

Voilà les accords de la version originale
10 Jun 2011
Über dieses Lied

Keine Informationen über dieses Lied.